» » »

Jester Race Bass tabs (ver.4)

Artists:  A B C D E F G H I J K L M N O P Q R S T U V W X Y Z # 

Jester Race Bass tabs (ver.4)

In Flames
Rating:
0/5 (0 votes)

Hard to play? Try these video lessons and learn fast.
                

Intro I (0:00)
|---------------------------------------------------------|
|---------------------------------------------------------|
|---------------------------------------------------------|
|-5-5-5--5-5-5--5-5-5--5-5-5--5-5-5--5-5-5--3-3-3-1-1-1---|

Intro II (0:07)
|--------------------------------------------------|
|--------------------------------------------------|
|--------------------------------------------------|
|-5-5-5--5-5-5--5-5-5--5-5-5--5-5-5--5-5-5--3-3----| x4
					    . .

Verse I (0:35)
|---------------------------------------------------------------|
|---------------------------------------------------------------|
|---------------------------------------------------------------|
|-5-5-5-5-5-5-5-5-5-5-5-5-5-5-5-5-5-5-5-5-5-5-5-5-5--1-1-1-3~---| x4

Chorus (1:03)
|------------------------------------------------------------------|
|------------------------------------------------------------------|
|------------------------------------------------------------------|
|-5-5-5-5-5-5-5-5-0-0-0-0-0-0-0-0-5-5-5-5-5-5-5-5-0-0-0-0-0-0-0-0--| x2

Verse I x2 (1:17)

Pre-chorus (1:31)
|------------------------------|
|------------------(7p5h7~)----|
|------------------------------|
|--1-1-1-3~--------------------|

Chorus x2 (1:33)

(1:46)  (1:47)       (1:49)
|-------|------------|-----------|
|-------|---GUITAR---|-----------|
|-------|---(REST)---|-----------|
|--5----|------------|-0-3-2-----|
   .

Verse II (1:51)
|------------------------------|
|------------------------------|
|------------------------------|
|--0-0-0-0000--0-0-----3-2-----| x2

Verse III (1:56)
|----------------------------------|
|------------------------------(9)-|
|-----9-7---10-9---10-9~-(10-12)---|
|-0-0-----0------0-----------------| x2

Verse II x2 (2:04)
Verse III x4 (2:10)
Chorus x2 (2:24)
Verse II x2 (2:38)
Verse III x2 (2:44)
Verse II x2 (2:51)
Verse III x4 (2:58)
Intro II x4 (3:11)

Solo (3:39)
|------------------------|
|------------------------|
|------------------------|
|-5-5-5-5-5-5--1-1-3-3---| x8



Verse III x12 (4:06)

End (4:48)
|-------------|
|-------------|
|-------------|
|-0-0-0-000---|
            
Hard to play? Try these video lessons and learn fast. | Correct




comments powered by Disqus
↑ Back to top | Tablatures and chords are parodies/interpretations of the original songs. You may use it for private study, scholarship, research or language learning purposes only