» » »

In Flames, Dialogue With The Stars Bass tabs (ver.2)

Artists:  A B C D E F G H I J K L M N O P Q R S T U V W X Y Z # 

Dialogue With The Stars Bass tabs (ver.2)

In Flames Tabs
Rating:
0/5 (0 votes)
Dialogue With The Stars lessons Tabs too difficult? Try these video lessons and learn fast
                D#||---------------------------|-----------------------------|
A#||---------------------------|-----------------------------|
F ||--0----0--0--0--3----------|-------x--x--x--x--3----2----|
C ||----------x--x-------------|--1----1--1--1--1------------|


                                                          
---------------------------|-----------------------------|
---------------------------|-----------------------------|
--0----0--0--0--3----------|-------------------3----2----|
---------------------------|--1----1--1--1--1------------|


                                                          
---------------------------|-----------------------------|
---------------------------|-----------------------------|
--0----0--0--0-------------|-----------------------------|
----------------1----------|--0----------3--------3------|


                                                          
---------------------------|-----------------------------|
---------------------------|-----------------------------|
--0----0--0--0--3----------|-------------------3----2----|
---------------------------|--1----1--1--1--1------------|


                                                          
---------------------------|-----------------------------|
---------------------------|-----------------------------|
--0----0--0--0-------------|-----------------------------|
----------------1----------|--0----------3--------3------|


                                                                           
------------------------------------|-------------------------------------|
------------------------------------|-------------------------------------|
--0----0--0--0--0--0----0--0--0--0--|--0----0--0--0--0--0--2--3-----------|
----------x--x--x----------x--x--x--|----------------------------0--3--0--|


                                                            
------------------------------------|----------------------|
------------------------------------|----------------------|
--0----0--0--0--0--0----0--0--0--0--|-------3--------------|
----------x--x--x----------x--x--x--|--1---------3----0----|


                                                                           
------------------------------------|-------------------------------------|
------------------------------------|-------------------------------------|
--0----0--0--0--0--0----0--0--0--0--|--0----0--0--0--0--0--2--3-----------|
----------x--x--x----------x--x--x--|----------x--x--x-----------0--3--0--|


                                                            
------------------------------------|----------------------|
------------------------------------|----------------------|
--0----0--0--0--0--0----0--0--0--0--|-------3--------------|
----------x--x--x----------x--x--x--|--1---------3----0----|


                                                          
---------------------------|-----------------------------|
---------------------------|-----------------------------|
--0----0--0--0--3----------|-------------------3----2----|
---------------------------|--1----1--1--1--1------------|


                                                          
---------------------------|-----------------------------|
---------------------------|-----------------------------|
--0----0--0--0-------------|-----------------------------|
----------------1----------|--0----------3--------3------|


                                                          
---------------------------|-----------------------------|
---------------------------|-----------------------------|
--0----0--0--0--3----------|-------------------3----2----|
---------------------------|--1----1--1--1--1------------|


                                                          
---------------------------|-----------------------------|
---------------------------|-----------------------------|
--0----0--0--0-------------|-----------------------------|
----------------1----------|--0----------3--------3------|


                                                                           
------------------------------------|-------------------------------------|
------------------------------------|-------------------------------------|
--0----0--0--0--0--0----0--0--0--0--|--0----0--0--0--0--0--2--3-----------|
----------x--x--x----------x--x--x--|----------x--x--x-----------0--3--0--|


                                                            
------------------------------------|----------------------|
------------------------------------|----------------------|
--0----0--0--0--0--0----0--0--0--0--|-------3--------------|
----------x--x--x----------x--x--x--|--1---------3----0----|


                                                                           
------------------------------------|-------------------------------------|
------------------------------------|-------------------------------------|
--0----0--0--0--0--0----0--0--0--0--|--0----0--0--0--0--0--2--3-----------|
----------x--x--x----------x--x--x--|----------x--x--x-----------0--3--0--|


                                                            
------------------------------------|----------------------|
------------------------------------|----------------------|
--0----0--0--0--0--0----0--0--0--0--|-------3--------------|
----------x--x--x----------x--x--x--|--1---------3----0----|


                                                   
------------------------|-------------------------|
------------------------|-------------------------|
--0----0----------------|--0----0-----------------|
------------------------|----------------3--------|


                                                                
----------------------------------|----------------------------|
----------------------------------|----------------------------|
--5----5--5----5--5----5--5----5--|----------------------------|
----------------------------------|--1----5----3----3--3----3--|


                                                                      
----------------------------------|----------------------------------|
----------------------------------|----------------------------------|
----------------------------------|----------------------------------|
--5----5--5----5--5----5--5----5--|--5----5--5----5--3----3--3----3--|


                                                                
----------------------------------|----------------------------|
----------------------------------|----------------------------|
--5----5--5----5--5----5--5----5--|----------------------------|
----------------------------------|--1----3----5----5--5----5--|


                                                             
-------------------|--------------------|-------------------|
-------------------|--------------------|-------------------|
--0----------------|--------------------|--0----------------|
-------------------|--1--------3--------|-------------------|


                                                              
--------------------|-------------------|--------------------|
--------------------|-------------------|--------------------|
--------------------|--0----------------|--------------------|
--1--------3--------|-------------------|--1--------3--------|


                                                                            
-------------------|--------------------|----------------------------------|
-------------------|--------------------|----------------------------------|
--0----------------|--------------------|----------------------------------|
-------------------|--1--------3--------|--5----5--5----5--5----5--5----5--|


                                                                      
----------------------------------|----------------------------------|
----------------------------------|----------------------------------|
----------------------------------|--5----5--5----5--5----5--5----5--|
--5----5--5----5--3----3--3----3--|----------------------------------|


                                                                
----------------------------|----------------------------------|
----------------------------|----------------------------------|
----------------------------|----------------------------------|
--1----5----3----3--3----3--|--5----5--5----5--5----5--5----5--|


                                                                      
----------------------------------|----------------------------------|
----------------------------------|----------------------------------|
----------------------------------|--5----5--5----5--5----5--5----5--|
--5----5--5----5--3----3--3----3--|----------------------------------|


                                                                      
----------------------------|-------------------|--------------------|
----------------------------|-------------------|--------------------|
----------------------------|--0----------------|--------------------|
--1----3----5----5--5----5--|-------------------|--1--------3--------|


                                                             
-------------------|--------------------|-------------------|
-------------------|--------------------|-------------------|
--0----------------|--------------------|--0----------------|
-------------------|--1--------3--------|-------------------|


                                                              
--------------------|-------------------|--------------------|
--------------------|-------------------|--------------------|
--------------------|--0----------------|--------------------|
--1--------3--------|-------------------|--1--------3--------|


                                                                               
-------------------------|--------------------------|-------------------------|
-------------------------|--------------------------|-------------------------|
--5----5----1----1----0--|------0------5------------|--1----1--------------0--|
-------------------------|--------------------------|------------3----3-------|


                                                                                
--------------------------|-------------------------|--------------------------|
--------------------------|-------------------------|--------------------------|
------0------5------------|--5----5----1----1----0--|------0------5------------|
--------------------------|-------------------------|--------------------------|


                                                                               
-------------------------|--------------------------|-------------------------|
-------------------------|--------------------------|-------------------------|
--1----1--------------0--|------0------5------------|--5----5----1----1----0--|
------------3----3-------|--------------------------|-------------------------|


                                                                                
--------------------------|-------------------------|--------------------------|
--------------------------|-------------------------|--------------------------|
------0------5------------|--1----1--------------0--|------0------5------------|
--------------------------|------------3----3-------|--------------------------|


                                                                               
-------------------------|--------------------------|-------------------------|
-------------------------|--------------------------|-------------------------|
--5----5----1----1----0--|------0------5------------|--1----1--------------0--|
-------------------------|--------------------------|------------3----3-------|


                                                       
--------------------------|---------------------------|
--------------------------|---------------------------|
------0------5------------|--0----0--0--0--3----------|
--------------------------|---------------------------|


                                                          
-----------------------------|---------------------------|
-----------------------------|---------------------------|
-------------------3----2----|--0----0--0--0-------------|
--1----1--1--1--1------------|----------------1----------|


                                                          
-----------------------------|---------------------------|
-----------------------------|---------------------------|
-----------------------------|--0----0--0--0--3----------|
--0----------3--------3------|---------------------------|


                                                          
-----------------------------|---------------------------|
-----------------------------|---------------------------|
-------------------3----2----|--0----0--0--0-------------|
--1----1--1--1--1------------|----------------1----------|


                                                          
-----------------------------|---------------------------|
-----------------------------|---------------------------|
-----------------------------|--0----0--0--0--3----------|
--0----------3--------3------|---------------------------|


                                                      
-----------------------------|----------------------||
-----------------------------|----------------------||
-------------------3----2----|--0----0--------------||
--1----1--1--1--1------------|----------------------||
            

comments powered by Disqus
↑ Back to top | In Flames Bass for Dialogue With The Stars. Lyrics for acoustic guitar and electric guitar. Tablatures and chords are parodies/interpretations of the original songs. You may use it for private study, scholarship, research or language learning purposes only