» » »

Dialogue With The Stars Bass tabs (ver.1)

Artists:  A B C D E F G H I J K L M N O P Q R S T U V W X Y Z # 

Dialogue With The Stars Bass tabs (ver.1)

In Flames
Rating:
0/5 (0 votes)

Hard to play? Try these video lessons and learn fast.
                Artist - In Flames
Song - Dialogue with the Star
Album - Whoracle

Watching tuning, from lowest to highest: C, F, B flat, E flat.


(0:00)
Eb|-------------------------------------------|
Bb|-------------------------------------------|
F |0---0-0-0-3------------------------3---2---|
C |-----------------------1---1-1-1-1---------|

(0:04)
Eb|----------------------------------------------------------------------------------|
Bb|----------------------------------------------------------------------------------|  x 2
F |0---0-0-0-3----------------------3---2---0---0-0-0--------------------------------|
C |-----------------------1---1-1-1-------------------1------------0---0-0-0-3-------|

(0:19)
Eb|------------------------------------------------------------------------------------|
Bb|------------------------------------------------------------------------------------|
F |---------------------------------------------------------------------3--------------|
C |5--5-x-x-x-5--5-x-x-x-5--5-x-x-x-5h7h8-0h1h3-5--5-x-x-x-5---5---1---------3----4----|


(0:27)
Eb|------------------------------------------------------------------------------------|
Bb|------------------------------------------------------------------------------------|
F |---------------------------------------------------------------------3--------------|
C |5--5-x-x-x-5--5-x-x-x-5--5-x-x-x-5h7h8-0h1h3-5--5-x-x-x-5---5---1---------3----4----|

(0:34)
Eb|----------------------------------------------------------------------------------|
Bb|----------------------------------------------------------------------------------|  x 2
F |0---0-0-0-3----------------------3---2---0---0-0-0--------------------------------|
C |-----------------------1---1-1-1-------------------1------------0---0-0-0-3-------|

(0:49)
Eb|------------------------------------------------------------------------------------|
Bb|------------------------------------------------------------------------------------|  x 2
F |---------------------------------------------------------------------3--------------|
C |5--5-x-x-x-5--5-x-x-x-5--5-x-x-x-5h7h8-0h1h3-5--5-x-x-x-5---5---1---------3----4----|

(1:05)
Eb|----------------------------------------------------------------------------------|
Bb|----------------------------------------------------------------------------------|
F |-------------------------------------------5---5-5-5-5-5---5-5-5-5----------------|
C |5--5------------------5--5----------3------------------------------1---5---3------|

(1:12)
Eb|----------------------------------------------------------------------------------|
Bb|----------------------------------------------------------------------------------|
F |-------------------------------------------5---5-5-5-5-5---5-5-5-5-----2---0------|
C |5---5-5-5-5-5---5-5-5-5-5---5-5-5-5-3------------------------------1--------------|

(1:20)
Eb|-------------------------------------------------------------------------|
Bb|-------------------------------------------------------------------------|  x 2
F |-------------------------------------------------------------------------|
C |5---------------------1------3------5---------------------1------3---4---|

(1:35)
Eb|----------------------------------------------------------------------------------|
Bb|----------------------------------------------------------------------------------|
F |-------------------------------------------5---5-5-5-5-5---5-5-5-5----------------|
C |5---5-5-5-5-5---5-5-5-5-5---5-5-5-5-3------------------------------1---5---3------|

(1:43)
Eb|----------------------------------------------------------------------------------|
Bb|----------------------------------------------------------------------------------|
F |-------------------------------------------5---5-5-5-5-5---5-5-5-5-----2---0------|
C |5---5-5-5-5-5---5-5-5-5-5---5-5-5-5-3------------------------------1--------------|

(1:51)
Eb|-------------------------------------------------------------------------|
Bb|-------------------------------------------------------------------------|  x 2
F |-------------------------------------------------------------------------|
C |5---------------------1------3------5---------------------1------3---4---|

(2:06) The rhythm here is kinda weird... it's not exactly with the guitar, listen closely for it.
Eb|-------------------------------------------------------------------|
Bb|-------------------------------------------------------------------|  x 4
F |--------------------------3--5----\------------------------3--5----|
C |10--10----\6--6----6-5--3----------6--6----\3--3----3-5--3---------|

(2:36)
Eb|----------------------------------------------------------------------------------|
Bb|----------------------------------------------------------------------------------|  x 2
F |0---0-0-0-3----------------------3---2---0---0-0-0--------------------------------|
C |-----------------------1---1-1-1-------------------1------------0---0-0-0-3-------|

(2:51)
Eb|--------------------------------------------------|
Bb|-------------------------------------------7--7--\|
F |0---0-0-0-3------------------------3---2----------|
C |-----------------------1---1-1-1-1----------------|
            
Hard to play? Try these video lessons and learn fast. | Correct




comments powered by Disqus
↑ Back to top | Tablatures and chords are parodies/interpretations of the original songs. You may use it for private study, scholarship, research or language learning purposes only