» » »

Herbert The Pervert Tabs (ver.1)

Artists:  A B C D E F G H I J K L M N O P Q R S T U V W X Y Z # 

Herbert The Pervert Tabs (ver.1)

Infected Mushroom
Rating:
0/5 (0 votes)

Hard to play? Try these video lessons and learn fast.
                (Intro)

Note: this tab is not for the acoustic part of the intro in the very beginning, it 
is for the guitar part that starts at 0:12. 

Standard tuning EADGBe

0:12-0:39

e[------------------------------------------------------------------------]
B[------------------------------------------------------------------------]
G[------------------------------------------------------------------------]
D[---5s7---7--9-9s10---10s14-12---14-12-10-9--7---------7--9-9s10---------]
A[------------------------------------------------------------------------]
E[------------------------------------------------------------------------]


e[---------------------------------------------]
B[---------------------------------------------]
G[-----------------------------------17--------]
D[---10s14---14s16--16s19----19s21-------------]
A[---------------------------------------------]
E[---------------------------------------------]  repeat 2x


0:42-1:08

e[------------------------------------------------------------------------]
B[------------------------------------------------------------------------]
G[------------------------------------------------------------------------]
D[-----7-9-10-9-12-10-9-10---9-10-9-12-10-9-10-----------7-9-10-9-12-10-9-]
A[------------------------------------------------------------------------]
E[------------------------------------------------------------------------]



e[------------------------------------------------------------------------]
B[------------------------------------------------------------------------]
G[------------------------------------------------------------------------]
D[10---9-10-9-12-10-9-10------------9-10-9-12-10-9-10---9-10-9-12-10-9-10-]
A[-------------------------------10---------------------------------------]
E[------------------------------------------------------------------------]


e[---------------------------------------------------]
B[---------------------------------------------------]
G[---------------------------------------------------]
D[--------9-10-9-12-10-9-10---9-10-9-12s14-----------]
A[------9--------------------------------------------]
E[---------------------------------------------------]  repeat 2x
            
Hard to play? Try these video lessons and learn fast. | Correct




comments powered by Disqus
↑ Back to top | Tablatures and chords are parodies/interpretations of the original songs. You may use it for private study, scholarship, research or language learning purposes only