>
 >
Becoming Insane

Becoming Insane Guitar Tabs

Infected Mushroom - Becoming Insane chords, tabs, tablatures, lyrics

Guitar lessons | Add/correct | Request | Top 50 tabs Artists:  A B C D E F G H I J K L M N O P Q R S T U V W X Y Z 0-9

Becoming Insane Guitar Tabs – Infected Mushroom

CD, Sheet music, Poster

Do you like Becoming Insane? Share with your friends now
TabsTabs v2Tabs v3

--> Intro


Guitar 1

e ------------------------------------------------------------------------|
B -------------------------------------3-2/3\2---2--5-555-6--6--3--3--6-5-|
G --2-222-3--3--0--0--3-2--2-222--3--3---------3--------------------------|
D ------------------------------------------------------------------------|
A ------------------------------------------------------------------------|
E ------------------------------------------------------------------------|

e ---------------------------------|
B ---------------------------------|
G -2-222-3--3--0--0--3-2/3\2\0-2---| 2x
D ---------------------------------|
A ---------------------------------|
E ---------------------------------|


Guitar 2

e --5-555-6--6--3--3--6-5--5-555--6--6-10-9/10\9-6-9--12-121212-13--13--10--|
B --------------------------------------------------------------------------|
G --------------------------------------------------------------------------|
D --------------------------------------------------------------------------|
A --------------------------------------------------------------------------|
E --------------------------------------------------------------------------|

e 10--13-12--5-555-6--6--3--3--6-5/6\5\3-5-|
B -----------------------------------------|
G -----------------------------------------|   2x
D -----------------------------------------|
A -----------------------------------------|
E -----------------------------------------|


Guitar 3 ... enters on repetition

    A         A#        Gm      A#  A

e --5----5----6----6----3----3---6--5--|
B --5----5----6----6----3----3---6--5--|
G --6----6----7----7----3----3---7--6--| 4x
D --7----7----8----8----5----5---8--7--|
A --7----7----8----8----5----5---8--7--|
E --5----5----6----6----3----3---6--5--|

--> Intro 2 (0:37)


e --5--5--5---6---5----3--3--3---5--5--5--5--5---6---5----3--3--3\0--0-0--|
B --5--5--5---6---5----3--3--3---5--5--5--5--5---6---5----3--3--3\0--0-0--|
G --6--6--6---7---6----3--3--3---5--6--6--6--6---7---6----3--3--3\0--0-0--|
D --7--7--7---8---7----5--5--5---5--7--7--7--7---8---7----5--5--5---------|
A --7--7--7---8---7----5--3--5---5--7--7--7--7---8---7----5--3--5---------|
E --5--5--5---6---5----3--3--3---5--5--5--5--5---6---5----3--3--3---------|

--> Riff (5:29 - 6:48)

Guitar 1

e -----------------------------------------------------------------|
B -----------------------------------------------------------------|
G ------5--5------5--5--------5--5------5--5------4--4------4--4---|
D -----------7---------7-----------7---------7---------5---------5-|
A --0-0---------0---------0-0---------0---------0---------0--------|
E -----------------------------------------------------------------|

                         A.H.

e -----------------------------------------------------------------|
B -----------------------------------------------------------------|
G -----2-----4-----5------7\--------5--5------5--5------7/8\7\5--5-|
D ---4---4-----4-----4-------------------7---------7-----------7---|
A -0-------0-----0-----0--------0-0---------0----------------------|
E -----------------------------------------------------------------|

                                                                A.H.

e ------------------------------------------------------------------|
B ------------------------------------------------------------------|
G -5------5--5--------4--4------4--4--------2-------4-----5------7\-|
D ---7---------7------------5---------5---4---4-------4-----4-------|
A ------0---------0-0---------0---------0---------0-----0-----0-----|
E ------------------------------------------------------------------|

Guitar 2


  P.M.------------------------------------------------|

   _/    4x     \_|_/     2x     \_|_/      2x      \_
e |---------------|----------------|------------------|
B |---------------|----------------|------------------|
G |---------------|----------------|------------------|
D |---------------|----------------|------------------|
A |7-7-7-7-7-7-7-7|-5-5-5-5-5-5-5-5|-4-4-4-4-4-4-4-4--|
E |5-5-5-5-5-5-5-5|-3-3-3-3-3-3-3-3|-2-2-2-2-2-2-2-2--|
   d d d d d d d d  d d d d d d d d  d d d d d d d d


--> Ending (6:56)~ Same as Intro


--> Notes:

/ = slide to a higher note
\ = slide to a lower note
A.H. = artificial harmonic
P.M. = palm mute   --> P.M.---- = palm mute continuous
d = pickstroke down





Comments


Popular Infected Mushroom tabs & chords
Saeed Chords
Smashing The Opponent 2 Chords
Becoming Insane Intro 1 Tabs
Dancing With Kadafi Tabs
Deeply Disturbed Tabs
Deeply Disturbed 1 Tabs
Heavyweight 3 Tabs
Jeenge Intro Tabs
Stretched Tabs
Suliman Tabs


Song lyrics



↑ Back to top | Tablatures and chords are parodies/interpretations of the original songs. You may use it for private study, scholarship, research or language learning purposes only
© 2014 AZChords.com Contact us | Privacy policy | DMCA | Add/correct tabs | Request tabs | Top 50 tabs