>
 >
Heavyweight

Heavyweight Guitar Tabs

Infected Mushroom - Heavyweight chords, tabs, tablatures, lyrics

Guitar lessons | Add/correct | Request | Top 50 tabs Artists:  A B C D E F G H I J K L M N O P Q R S T U V W X Y Z 0-9

Heavyweight Guitar Tabs – Infected Mushroom

CD, Sheet music, Poster

Do you like Heavyweight? Share with your friends now
TabsTabs v2Tabs v3
                              
The first part is played with a wah pedal. its pretty fun

E:-------------------------: x4
B:-------------------------:
G:---11-12-11------9-------:
D:-9----------12-9---------:
A:-------------------------:
E:-------------------------:


E:-------------------------: x1
B:-------------------------:
G:---11-12-11--------------:
D:-9----------12----12-----:
A:---------------10--------:
E:-------------------------:


E:-------------------------: x1
B:-------------------------:
G:----11-12-11-------------:
D:-------------12----12----:
A:-10-------------10-------:
E:-------------------------:


E:-------------------------: x1
B:-------------------------:
G:----10-12-10-------------:
D:-------------12----12----:
A:-10-------------12-------:
E:-------------------------:


E:-------------------------: x1
B:-------------------------:
G:----10-12-9--------------:
D:-------------10----10----:
A:-12-------------12-------:
E:-------------------------:


E:---14-15-14--------------: x1
B:------------15----17-----:
G:---------------16--------:
D:-9-----------------------:
A:-------------------------:
E:-------------------------:


E:----14-15-14-------------: x3
B:-------------15----17----:
G:----------------16-------:
D:-16----------------------:
A:-------------------------:
E:-------------------------:


E:----14-15-14-------10----: x1
B:-------------15----------:
G:----------------12-------:
D:-16----------------------:
A:-------------------------:
E:-------------------------:


E:---14-15-14-------10-----: x1
B:-8----------15-----------:
G:---------------12--------:
D:-------------------------:
A:-------------------------:
E:-------------------------:


E:---13-15-13--------------: x1
B:-8----------15----15-----:
G:---------------14--------:
D:-------------------------:
A:-------------------------:
E:-------------------------:


E:----13-15-12-------------: x1
B:-------------13----13----:
G:-14-------------14-------:
D:-------------------------:
A:-------------------------:
E:-------------------------:


E:-12-19-18----------------: x1
B:----------20-17----------:
G:----------------16-------:
D:-------------------------:
A:-------------------------:
E:-------------------------:


E:----14-15-14-------10----: x1
B:-8-----------15----------:
G:----------------12-------:
D:-------------------------:
A:-------------------------:
E:-------------------------:


E:----13-15-13-------------: x1
B:-8-----------15----15----:
G:----------------14-------:
D:-------------------------:
A:-------------------------:
E:-------------------------:


E:----13-15-12-------------: x1
B:-------------13----13----:
G:-14-------------14-------:
D:-------------------------:
A:-------------------------:
E:-------------------------:


E:----19-18----------------: x1
B:-17-------20-17----------:
G:----------------16~------:
D:-------------------------:
A:-------------------------:
E:-------------------------:


E:----19-18----------------: x1
B:-17-------20-17\5--------:
G:-------------------------:
D:-------------------------:
A:-------------------------:
E:-------------------------:


E:----19-18----------------: x1
B:-17-------20-17----------:
G:----------------15~------:
D:-------------------------:
A:-------------------------:
E:-------------------------:


E:----19-18-------22b23----: x1
B:-17-------20-17----------:
G:-------------------------:
D:-------------------------:
A:-------------------------:
E:-------------------------:


E:-------------------------------------: x1
B:-----------15----------------15------:
G:-14b-14-16----16-14----14-16----16---:
D:--------------------17---------------:
A:-------------------------------------:
E:-------------------------------------:


E:---------------------------------------------------: x1          
B:-------------15----------------15------------------: 
G:-14----14-16----16-14----14-16----16-14----14-16---:
D:----17----------------17----------------17---------:
A:---------------------------------------------------:
E:---------------------------------------------------:

       Then

E:----------------------------------------------------: x1    
B:--18-17-15-17-18-17-15-17-18-17-15-17-18-17-15-17---: 
G:----------------------------------------------------:
D:----------------------------------------------------:
A:----------------------------------------------------:
E:----------------------------------------------------:


E:-17~--20-22b23r-22-19------------: x1    
B:---------------------22--20b~----: 
G:---------------------------------:
D:---------------------------------:
A:---------------------------------:
E:---------------------------------:


E:-------------------------------: x1    
B:-20br19-19-20------------------: 
G:--------------21~-19-21~~\9----:
D:-------------------------------:
A:-------------------------------:
E:-------------------------------:



E:-22b-22-19--------------: x1    
B:-----------22~-20-22~---: 
G:------------------------:
D:------------------------:
A:------------------------:
E:------------------------:


E:-22br-20-20-------------: x1    
B:------------21-21~~\9---: 
G:------------------------:
D:------------------------:
A:------------------------:
E:------------------------:


E:------------------------: x1    
B:------------------------: 
G:----14b15~-12-----------:
D:-14-----------14--------:
A:------------------------:
E:------------------------:


E:-----------------------------------------------: x1    
B:-----------------------------------------------: 
G:--14b15~-12------14b~-12-----------------------:
D:------------14~----------14~-12-14-12----------:
A:--------------------------------------12b------:
E:------------------------------------------15~--: 


E:--------------------------------: x1    
B:--------------------------------: 
G:--------------------------------:
D:-12b~---------------------------:
A:-----14----12~-12b~-------------:
E:--------15---------15-12~~~\0---:        

I like to play the piano part, just for kicks

E:---15~~-12~~--15~~-12~~--: i dont know how many times    
B:------------12-----------: 
G:-------------------------:
D:-------------------------:
A:-------------------------:
E:-------------------------:





Comments


Popular Infected Mushroom tabs & chords
Smashing The Opponent Chords
Smashing The Opponent 2 Chords
Bust A Move Tabs
Dancing With Kadafi Tabs
Dancing With Kadafi 1 Tabs
Dancing With Kadafi Intro Tabs
Herbert The Pervert Intro Tabs
Jeenge Intro Tabs
Streched Tabs
Smashing The Opponent Ukulele


Song lyrics



↑ Back to top | Tablatures and chords are parodies/interpretations of the original songs. You may use it for private study, scholarship, research or language learning purposes only
© 2014 AZChords.com Contact us | Privacy policy | DMCA | Add/correct tabs | Request tabs | Top 50 tabs