>
 >
Dancing With Kadafi

Dancing With Kadafi Guitar Tabs

Infected Mushroom - Dancing With Kadafi chords, tabs, tablatures, lyrics

Guitar lessons | Add/correct | Request | Top 50 tabs Artists:  A B C D E F G H I J K L M N O P Q R S T U V W X Y Z 0-9

Dancing With Kadafi Guitar Tabs – Infected Mushroom

CD, Sheet music, Poster

Do you like Dancing With Kadafi? Share with your friends now
TabsTabs v2
"Dancing with Kadafi"
Infected Mushroom


PLEASE I KNOW THERE IS A LOT MORE I COULD DO TO MAKE THIS TAB BETTER! ANY CORRECTIONS OR 
WOULD BE GREATLY APPRECIATED AS I WANT TO PLAY THIS WITH MY BAND SOME DAY LIVE


intro
e|-------3-----3-----------3-----3-----------3-----3-----------1---|
B|-----1---------1-------1---------1-------1---------1-------1-----|
G|---4-------------4---4-------------4---4-------------4---4-------|
D|-------------------------------------3---------3-------0---------|
A|-0---------0-------0---------0-----------------------------------|
E|-----------------------------------------------------------------|


e|-------------------|
B|-----1-------1-----|
G|---4---4---4---4---|
D|-------------------|
A|-------------------|
E|-1-------0---------|
             (repeat)


intro lead
e|------------------8---------------------------------------------------|
B|-10p8---8-10-10---8h10------------------------------------------------|
G|------9--------------------5-7-7/9-5/7\5-------9p7----7---------------|
D|-----------------------5/7---------------7-5-------10---10-9-10-7-5-7-|
A|----------------------------------------------------------------------|
E|----------------------------------------------------------------------|


e|------------------------------------8-10-10^11------8p7----7-8-7--10--|
B|----------------------8-8/10---8/10------------10-------10------------|
G|--------------------7-------------------------------------------------|
D|-5-5/7------5-7-7/9---------------------------------------------------|
A|--------3/5-----------------------------------------------------------|
E|----------------------------------------------------------------------|


e|-8p7-----------------------------------8------------------------------|
B|-----10-10-10-10-10---10p8---8-10-10---8h10---------------------------|
G|---------------------------9--------------------5-7-7/9-5/7p5---------|
D|--------------------------------------------5/7---------------7--7-5--|
A|----------------------------------------------------------------------|
E|----------------------------------------------------------------------|


e|------------------------------|
B|------------------------------|
G|-9p7----7---------------------|
D|-----10---10-9-10-7-5-7-5-5/7-|
A|------------------------------|
E|------------------------------|


1:20 electric guitar
e|---------------|
B|---------------|
G|---------5-----|
D|-------7---7---|
A|-----5---------|
E|-5-8-----------|


1:20 soft synth
e|----------15------------15---13-12--------------13-12--------------------|
B|-----------------------------------13-10---13---------13-10---13--12-13--|
G|-14-16-17------14-16-17--------------------------------------------------|
D|-------------------------------------------------------------------------|
A|-------------------------------------------------------------------------|
E|-------------------------------------------------------------------------|
                                                                  (repeat)

3:13 delay synth notes (I'll leave the rhythm up to you.)
e|----------------------------------------------------------------------|
B|----------------------------------------------------------------------|
G|-9-------12-------9--------10--------11-------10-------13-------------|
D|----------------------------------------------------------------------|
A|----------------------------------------------------------------------|
E|----------------------------------------------------------------------|


3:28
e|----------------------------------------------------------------------|
B|----------------------------------------------------------------------|
G|-13------9-------12--------9---------10-------11--------10-------13---|
D|----------------------------------------------------------------------|
A|----------------------------------------------------------------------|
E|----------------------------------------------------------------------|


5:28 violin
e|-12---15----20--19-17-------------------------------------------------|
B|----------------------17-----13\6-6--5--------------------------------|
G|----------------------------------------------------------------------|
D|-------------------------------------------10--6/14-14----------------|
A|----------------------------------------------------------------------|
E|----------------------------------------------------------------------|


5:52
e|-------------11----------------------11----11-------------------------|
B|----------13----13----------13-13-------13------13--------------------|
G|-------12----------12----12------------------------14\11--------------|
D|-10h13----------------13----------------------------------------------|
A|----------------------------------------------------------------------|
E|----------------------------------------------------------------------|


6:00
e|----------------------------------------------------------------------|
B|----------------------------------------------------------------------|
G|----------12-15-12------------------12------------14-15-14\12---------|
D|-------12----------12------------12-----------------------------------|
A|-10h13----------------13-10-13---------10-11/17-----------------------|
E|----------------------------------------------------------------------|


e|----------------------------------------------------------------------|
B|-----------------------11----15---------------------------------------|
G|--------------------12----12----12--14tr15p14\12----------------------|
D|-12\11tr12------------------------------------------------------------|
A|----------------------------------------------------------------------|
E|----------------------------------------------------------------------|


6:48 synth
e|-----------------12-13-15-13---12----12-------------------------------|
B|-------11-14--15------------------15----15-14-----14------------------|
G|-12-14-----------------------------------------15----15-14-12---------|
D|----------------------------------------------------------------------|
A|----------------------------------------------------------------------|
E|----------------------------------------------------------------------|


e|----------------12-13-15-17-15h17p15p13-12---------------------------------|
B|-------11-14-15----------------------------15-14-11-14-11----11-------11-15|
G|-12-14----------------------------------------------------14----12-14------|
D|---------------------------------------------------------------------------|
A|---------------------------------------------------------------------------|
E|---------------------------------------------------------------------------|
                                                         (repeat from 6:48)

7:52 synth
e|----------------------------------------------------------------------|
B|----------------------------------------------------------------------|
G|---------------------------12-----------------------------------11----|
D|-13-12-10-----13-12-10---------13-12-10---------13-12-10-----10----10-|
A|----------12-----------12---------------12--0------------12-----------|
E|----------------------------------------------------------------------|


e|----------------------------------------------------------------------|
B|----------------------------------------------------------------------|
G|----------------------------------------------------------------------|
D|-13-12-10----------------13-12-10------7-----13-12-10-----------------|
A|----------12--10-10-12------------12------------------12-0-12-12------|
E|-------------------------------------5---5----------------------------|


e|-------------------|
B|-------------------|
G|----------------14-|
D|-13-12-10----------|
A|----------12-12----|
E|-------------------|


8:08 synth continued...
e|----------------------------------------------------------------------|
B|----------------------------------------------------------------------|
G|----------------------------------------------------------------------|
D|-13-12-10---------------13-12-10------------13-12-10------------------|
A|----------12-10-10-12------------12--12-0------------12-10-10-12---12-|
E|----------------------------------------------------------------------|


e|-----------------------------------------------------------------------|
B|-----------------------------------------------------------------------|
G|--------------------------------------------------------------------12-|
D|-13-13-13-12-12-12-10-10-10---13-12-10---------------13-12-10----------|
A|---------------------------------------12-10-10-12------------12-12----|
E|-----------------------------------------------------------------------|


e|----------------------------------------------------------------------|
B|----------------------------------------------------------------------|
G|----------------------------------------------------------------------|
D|-13-12-10-------------------------------------------------------------|
A|----------12---0-10-0-12-0-15--12-10-12-12----------------------------|
E|----------------------------------------------------------------------|


8:32 clean guitar
e|----------------------------------------------------------------------|
B|---------0---------------0----------------7-----------------4---------|
G|-----3-----3---3-----3-----3---3-----10-----10---10-----6-----6---6---|
D|---4---4-----4-----4---4-----4-----8----8------8------4---4-----4-----|
A|---------------------------------6------------------2-----------------|
E|-2---------------0----------------------------------------------------|
                                                             (repeat)

8:48 delayed lead effect
e|----------------------------------------------------------------------|
B|----------------------------------------------------------------------|
G|-6-6-6--4-4-4--3-3---6-6-6--4-4-4--3-3----10-8-----------8-6-8-6-6----|
D|-----------------------------------------------8-------8--------------|
A|-------------------------------------------------9-6-9----------------|
E|----------------------------------------------------------------------|


e|----------------------|
B|----------------------|
G|-10-8-6--6--6--6-6-8--|
D|----------------------|
A|----------------------|
E|----------------------|


8:56
e|----------------------------------------------------------------------|
B|----------------------------------------------------------------------|
G|-6--6-6--4-4-4--3------6--6-6--4--4--4-4--4--10-8-----------8-6-8-6---|
D|------------------4-------------------------------8-------8-----------|
A|----------------------------------------------------9-6-9-------------|
E|----------------------------------------------------------------------|


e|--------------------------------|
B|--------------------------------|
G|-10-8--10-8----------------6-8--|
D|------------9-8--9---9--9-------|
A|--------------------------------|
E|--------------------------------|
                (repeat from 8:56)


9;12 synth
e|----------------------------------------------------------------------|
B|------------------------------------------------11-12--12-11-10-------|
G|-11----13-15-----11----------------7-----7----------------------11----|
D|----11--------11---------------------8-8---8-9------------------------|
A|--------------------13-11-9-9-----------------------------------------|
E|------------------------------12--------------------------------------|


e|-----------------------------------------|
B|-------------------------------11--------|
G|-8-----------8----------8-11------11-----|
D|---8-------8---8----8-9--------------11--|
A|------6-9--------------------------------|
E|-----------------------------------------|
                        (repeat from 9:12)

10:00 clean guitar
e|----------------------------------------------------------------------|
B|---------0---------------0----------------7-----------------4---------|
G|-----3-----3---3-----3-----3---3-----10-----10---10-----6-----6---6---|
D|---4---4-----4-----4---4-----4-----8----8------8------4---4-----4-----|
A|---------------------------------6------------------2-----------------|
E|-2---------------0----------------------------------------------------|
                                                             (repeat)





Comments


Popular Infected Mushroom tabs & chords
Becoming Insane 2 Tabs
Dancing With Kadafi 1 Tabs
Deeply Disturbed 1 Tabs
Deeply Disturbed 3 Tabs
Deeply Disturbed 4 Tabs
Heavyweight 2 Tabs
Herbert The Pervert Intro Tabs
Jeenge Intro Tabs
Xtc Tabs
Smashing The Opponent Ukulele


Song lyrics



↑ Back to top | Tablatures and chords are parodies/interpretations of the original songs. You may use it for private study, scholarship, research or language learning purposes only
© 2014 AZChords.com Contact us | Privacy policy | DMCA | Add/correct tabs | Request tabs | Top 50 tabs