» » »

Infant Sorrow, I Am Jesus Tabs (ver.2)

Artists:  A B C D E F G H I J K L M N O P Q R S T U V W X Y Z # 

I Am Jesus Tabs (ver.2)

Infant Sorrow Tabs
Rating:
0/5 (0 votes)
I Am Jesus lessons Tabs too difficult? Try these video lessons and learn fast
                -----------------------------------------------------------------------------
                       I am Jesus - Infant Sorrow
-----------------------------------------------------------------------------

Tuning:Standard (eBGDAE)
Hey so this is my first tab so please rate kindly. my friend wanted me to learn 
this song on the guitar for him and write out the tab and i figured i might as 
well upload it and help everyone else out online.

Riff:
e|----------------|----------------|------------------|
B|----------------|----------------|------------------|
G|----------------|----------------|------------------| 4x
D|-----4-----5----|-----5-----4----|------9-----10----|
A|---2-----2-----2|---2-----2-----2|----7-----7------7|
E|-0-----0-----0--|-0-----0-----0--|-/5-----5------5--|

Chorus (something like this)
e|---------------------|-----------------------|  ****\
B|---------------------|-----------------------|      |
G|-11-11-11-9--9--11-11|-12-12-12-11---12-12-12|      |
D|-12-12-12-12-12-12-12|-12-12-12-12---12-12-12|      |
A|-9--9--9--9--9--9--9-|-10-10-10-10---10-10-10|      |
E|---------------------|-----------------------|       \
                                                        >2x
e|-----------------------|-----------------------|     /
B|-----------------------|-----------------------|    |
G|-12-12-12-11---12-12-12|-12-12-12-11---12-12-12|    |
D|-12-12-12-12---12-12-12|-12-12-12-12---12-12-12|    |
A|-10-10-10-10---10-10-10|-10-10-10-10---10-10-10|    |
E|-----------------------|-----------------------|____/

Riff 2x

Chorus 2x

Interlude (no guitar part)

Chorus 2x

Riff 2x

Chorus 5x

thats it! a pretty simple song with not many parts. 

************************************

| /   slide up
| \   slide down
| h   hammer-on
| p   pull-off
| ~   vibrato
| +   harmonic
| x   Mute note
| b   Bend
| pb  Pre-bend
| br  Bend release
| pbr Pre-bend release
| brb Bend release bend

************************************
            

comments powered by Disqus
↑ Back to top | Infant Sorrow Tabs for I Am Jesus. Lyrics for acoustic guitar and electric guitar. Tablatures and chords are parodies/interpretations of the original songs. You may use it for private study, scholarship, research or language learning purposes only