» » »

Infant Sorrow, Furry Walls Tabs (ver.1)

Artists:  A B C D E F G H I J K L M N O P Q R S T U V W X Y Z # 

Furry Walls Tabs (ver.1)

Infant Sorrow Tabs
 Rating:
4/5 (9 votes)
Furry Walls lessons Tabs too difficult? Try these video lessons and learn fast
1
                Here's my first go at a tab.  I figured it all out by ear, but feel free to message me 
there are mistakes.  I know there are some parts with two guitar parts, but I tabbed what 
play when I play this song by myself.

Intro:
e--4-4-4444-4-44-4-4444-4-|
B--4-4-4444-4-44-4-4444-4-|
G--4-4-4444-4-44-4-4444-4-|    Repeat
D--6-6-6666-6-66-6-6666-6-|      3x
A--6-6-6666-6-66-6-6666-6-|
E--4-4-4444-4-44-4-4444-4-|

-----------------------------------------------------------------------------|
-----------------------------------------------------------------------------|
-4-4-4-4-8-8-8-8---------6-6-6-6------------------4-4-4-4-4-4-4-4-4444--4444-|
-4-4-4-4-8-8-8-8-6-6-6-6-6-6-6-6-2-2-2-2-5-5-7-7--4-4-4-4-4-4-4-4-4444--4444-|
-2-2-2-2-6-6-6-6-6-6-6-6-4-4-4-4-2-2-2-2-5-5-7-7--4-4-4-4-4-4-4-4-4444--4444-|
-----------------4-4-4-4---------0-0-0-0-3-3-5-5-----------------------------|

Chorus:
e----------------------------------------------------------------------|
B----------------------------------------------------------------------|
G--4-4-4-4-8-8-8-8---------6-6-6-6------------------4-4-4-4------------|   Repeat
D--4-4-4-4-8-8-8-8-6-6-6-6-6-6-6-6-2-2-2-2-5-5-7-7--4-4-4-4-5555--7777-|     2x
A--2-2-2-2-6-6-6-6-6-6-6-6-4-4-4-4-2-2-2-2-5-5-7-7--2-2-2-2-5555--7777-|
E------------------4-4-4-4---------0-0-0-0-3-3-5-5----------3333--5555-|

Verse:
e----------------------------------|
B--5-5-5-5-4-4-4-4-5-5-5-5-5-5-5-5-|
G----------------------------------|   Repeat
D----------------------------------|     2x
A----------------------------------|
E----------------------------------|

---------------------------------|
-5-5-5-5-4-4-4-4-6-6-6-6-7-7-7-7-|
---------------------------------|
---------------------------------|
---------------------------------|
---------------------------------|

Repeat Chorus

Repeat Verse

Solo:
e--11-12-14--12-11-12-14----11-12-14--12-11-------|
B-------------------------------------------12----|
G----------------------------------------------13-|
D-------------------------------------------------|
A-------------------------------------------------|
E-------------------------------------------------|

------------------------------------|
------------------------------------|
-----------------4-4-4-4------------|
-2-2-2-2-5-5-7-7-4-4-4-4-5555--7777-|
-2-2-2-2-5-5-7-7-2-2-2-2-5555--7777-|
-0-0-0-0-3-3-5-5---------3333--5555-|

Repeat Chorus

Bridge:
e----------------------------|
B----------------------------|
G--12-----13-----12-----13---|
D-----13----12------13----12-|
A----------------------------|
E----------------------------|

-6---6---4---4---2---2---2---2---|
---7---7---5---5---4---4---4---4-|
---------------------------------|   Repeat
---------------------------------|     2x
---------------------------------|
---------------------------------|

Repeat Verse

Repeat Solo

Repeat Chorus

Outro:
e----------------------------------------------------|
B----------6-6-8-8---------6-6-8-8---------6-6-8-8---|
G--4-4-4-4---------4-4-4-4---------4-4-4-4---------4-|
D--4-4-4-4---------4-4-4-4---------4-4-4-4---------4-|
A--2-2-2-2---------2-2-2-2---------2-2-2-2---------2-|
E----------------------------------------------------|
            
Submit corrections

comments powered by Disqus
↑ Back to top | Infant Sorrow Tabs for Furry Walls. Lyrics for acoustic guitar and electric guitar. 1 Tablatures and chords are parodies/interpretations of the original songs. You may use it for private study, scholarship, research or language learning purposes only