» » »

I Am Jesus Tabs (ver.1)

Artists:  A B C D E F G H I J K L M N O P Q R S T U V W X Y Z # 

I Am Jesus Tabs (ver.1)

Infant Sorrow
Rating:
4/5 (3 votes)

Hard to play? Try these video lessons and learn fast.
                songs from that movie,, I Am Jesus
2010
my name is Sean btw this is my first tab hope you like it


intro/verse

|-----------------|-----------------|-----------------|
|-----------------|-----------------|-----------------|
|-----------------|-----------------|-----4-----5-----|
|-----4-----5-----|-----5-----4-----|---2-----2---2---|
|---2-----2---2---|---2-----2---2---|-0-----0-------0-|
|-0-----0-------0-|-0-----0-------0-|-----------------|

it repeats in an odd way, with only 3 bars in the riff instead of the usual 4 tripped me 
too when i first tried learning it lol

Chorus Chords

|---|---|---|---|
|---|---|---|---|
|-7-|---|-5-|---|
|-7-|-7-|-5-|-5-|
|-5-|-7-|-3-|-5-|
|---|-5-|---|-3-|

then theres an interlude where he goes "I Am the setting sun, I am the chosen one..." 
is no guitar for this part and i cant figure out the chords ill put them up when i can 
them out
Peace have a good one
            
Hard to play? Try these video lessons and learn fast. | Correct




comments powered by Disqus
↑ Back to top | Tablatures and chords are parodies/interpretations of the original songs. You may use it for private study, scholarship, research or language learning purposes only