» » »

Infant Sorrow, Furry Walls Tabs (ver.3)

Artists:  A B C D E F G H I J K L M N O P Q R S T U V W X Y Z # 

Furry Walls Tabs (ver.3)

Infant Sorrow Tabs
Rating:
0/5 (0 votes)
Furry Walls lessons Tabs too difficult? Try these video lessons and learn fast
                Just wanted to provide people with a complete version of  the song to play,
more than me and my ear.

Intro:
e--4-4-4444-4-44-4-4444-4-|
B--4-4-4444-4-44-4-4444-4-|
G--4-4-4444-4-44-4-4444-4-|    Repeat
D--6-6-6666-6-66-6-6666-6-|      3x
A--6-6-6666-6-66-6-6666-6-|
E--4-4-4444-4-44-4-4444-4-|

-----------------------------------------------------------------------------|
-----------------------------------------------------------------------------|
-4-4-4-4-8-8-8-8---------6-6-6-6------------------4-4-4-4-4-4-4-4-4444--4444-|
-4-4-4-4-8-8-8-8-6-6-6-6-6-6-6-6-2-2-2-2-5-5-7-7--4-4-4-4-4-4-4-4-4444--4444-|
-2-2-2-2-6-6-6-6-6-6-6-6-4-4-4-4-2-2-2-2-5-5-7-7--2-2-2-2-2-2-2-2-2222--2222-|
-----------------4-4-4-4---------0-0-0-0-3-3-5-5-----------------------------|

Chorus:
e----------------------------------------------------------------------|
B----------------------------------------------------------------------|
G--4-4-4-4-8-8-8-8---------6-6-6-6------------------4-4-4-4------------|Repeat
D--4-4-4-4-8-8-8-8-6-6-6-6-6-6-6-6-2-2-2-2-5-5-7-7--4-4-4-4-5555--7777-| 2x
A--2-2-2-2-6-6-6-6-6-6-6-6-4-4-4-4-2-2-2-2-5-5-7-7--2-2-2-2-5555--7777-|
E------------------4-4-4-4---------0-0-0-0-3-3-5-5----------3333--5555-|

Verse:
e----------------------------------|
B----------------------------------|
G--6-6-6-6-4-4-4-4-2-2-2-2---------|   Repeat
D--6-6-6-6-4-4-4-4-2-2-2-2-6-6-6-6-|     2x
A--4-4-4-4-2-2-2-2-0-0-0-0-6-6-6-6-|
E--------------------------4-4-4-4-|

e----------------------------------|
B----------------------------------|
G--6-6-6-6-8-8-8-8-----------------|   
D--6-6-6-6-8-8-8-8---------7-7-7-7-|     
A--4-4-4-4-6-6-6-6-5-5-5-5-7-7-7-7-|
E------------------3-3-3-3-5-5-5-5-|

Chorus

Verse

Lead break:
e--11-12-14--12-11-12-14----11-12-14--12-11-------|
B-------------------------------------------12----|
G----------------------------------------------13-|
D-------------------------------------------------|
A-------------------------------------------------|
E-------------------------------------------------|

------------------------------------|
------------------------------------|
-----------------4-4-4-4------------|
-2-2-2-2-5-5-7-7-4-4-4-4-5555--7777-|
-2-2-2-2-5-5-7-7-2-2-2-2-5555--7777-|
-0-0-0-0-3-3-5-5---------3333--5555-| <--lead guitar picks up here, the rhythm 
guitar just plays the chorus behind it

Chorus

Bridge intro rhythm: 
---------------------|
---------------------|
---------------------|
----5555--5555--5555-|
----5555--5555--5555-|
----3333--3333--3333-|

Bridge intro lead:
e----------------------------|
B----------------------------|
G--12-----13-----12-----13---|
D-----13----12------13----12-|
A----------------------------|
E----------------------------|

Bridge:
A#-Ab-B-B(play on A and D strings

Bridge lead:
-6---6---4---4---2---2---2---2---|
---7---7---5---5---4---4---4---4-|
---------------------------------|   Repeat
---------------------------------|     2x
---------------------------------|
---------------------------------|

Verse

Lead Break

Chorus

Outro:
e--------------------------------------------------7-|
B--------------------------------------------------7-|
G--4-4-4-4---------4-4-4-4---------4-4-4-4---------8-|
D--4-4-4-4---------4-4-4-4---------4-4-4-4---------9-|*let final B ring
A--2-2-2-2-5-5-7-7-2-2-2-2-5-5-7-7-2-2-2-2-5-5-7-7-9-|
E----------3-3-5-5---------3-3-5-5---------3-3-5-5-7-|
            

comments powered by Disqus
↑ Back to top | Infant Sorrow Tabs for Furry Walls. Lyrics for acoustic guitar and electric guitar. Tablatures and chords are parodies/interpretations of the original songs. You may use it for private study, scholarship, research or language learning purposes only