>
 >
Furry Walls 1

Furry Walls 1 Guitar Tabs

Infant Sorrow - Furry Walls 1 chords, tabs, tablatures, lyrics

Guitar lessons | Add/correct | Request | Top 50 tabs Artists:  A B C D E F G H I J K L M N O P Q R S T U V W X Y Z 0-9

Furry Walls 1 Guitar Tabs – Infant Sorrow

CD, Sheet music, Poster

Do you like Furry Walls 1? Share with your friends now
ChordsChords v2TabsTabs v2Tabs v3Ukulele
==INTRO==
__Rhythm Guitar (Clean)__
 1 & 2 & 3 & 4 & 1 & 2 & 3 & 4 & 1 & 2 & 3 & 4 & 1 & 2 & 3 & 4 &
 G#m
e4---4---4---4-4---4-4---4---4-4-4---4---4---4-4---4-4---4---4-4-|
B4---4---4---4-4---4-4---4---4-4-4---4---4---4-4---4-4---4---4-4-|
G4---4---4---4-4---4-4---4---4-4-4---4---4---4-4---4-4---4---4-4-|
D6---6---6---6-6---6-6---6---6-6-6---6---6---6-6---6-6---6---6-6-|
A6---6---6---6-6---6-6---6---6-6-6---6---6---6-6---6-6---6---6-6-|
E4---4---4---4-4---4-4---4---4-4-4---4---4---4-4---4-4---4---4-4-|

 1 & 2 & 3 & 4 & 1 & 2 & 3 & 4 & 1 & 2 & 3 & 4 & 1 & 2 & 3 & 4 &

e4---4---4---4-4---4-4---4---4-4-4---4---4---4-4---4-4---4---4-4-|
B4---4---4---4-4---4-4---4---4-4-4---4---4---4-4---4-4---4---4-4-|
G4---4---4---4-4---4-4---4---4-4-4---4---4---4-4---4-4---4---4-4-|
D6---6---6---6-6---6-6---6---6-6-6---6---6---6-6---6-6---6---6-6-|
A6---6---6---6-6---6-6---6---6-6-6---6---6---6-6---6-6---6---6-6-|
E4---4---4---4-4---4-4---4---4-4-4---4---4---4-4---4-4---4---4-4-|

 1 & 2 & 3 & 4 & 1 & 2 & 3 & 4 & 1 & 2 & 3 & 4 & 1 & 2 & 3 & 4 &

e4---4---4---4-4---4-4---4---4-4-4---4---4---4-4---4-4---4---4-4-|
B4---4---4---4-4---4-4---4---4-4-4---4---4---4-4---4-4---4---4-4-|
G4---4---4---4-4---4-4---4---4-4-4---4---4---4-4---4-4---4---4-4-|
D6---6---6---6-6---6-6---6---6-6-6---6---6---6-6---6-6---6---6-6-|
A6---6---6---6-6---6-6---6---6-6-6---6---6---6-6---6-6---6---6-6-|
E4---4---4---4-4---4-4---4---4-4-4---4---4---4-4---4-4---4---4-4-|

__Bass__
 1 & 2 & 3 & 4 & 1 & 2 & 3 & 4 & 1 & 2 & 3 & 4 & 1 & 2 & 3 & 4 &
G----------------------------------------------------------------|
D----------------------------------------------------------------|
A----------------------------------------------------------------|
E----------------------------------------------------------------|

 1 & 2 & 3 & 4 & 1 & 2 & 3 & 4 & 1 & 2 & 3 & 4 & 1 & 2 & 3 & 4 &
G----------------------------------------------------------------|
D----------------------------------------------------------------|
A----------------------------------------------------------------|
E4---------------6-------7-------2---------------1---------------|

 1 & 2 & 3 & 4 & 1 & 2 & 3 & 4 & 1 & 2 & 3 & 4 & 1 & 2 & 3 & 4 &
G----------------------------------------------------------------|
D----------------------------------------------------------------|
A----------------------------------------------------------------|
E4---------------6-------7-------2---------------1---------------|

(bass plays root notes for the rest of the song)


==VERSE var.1==
__Rhythm Guitar__
 1 & 2 & 3 & 4 & 1 & 2 & 3 & 4 & 1 & 2 & 3 & 4 & 1 & 2 & 3 & 4 &
 B               D#              Gm              C#m
e----------------------------------------------------------------|
B4---4---4---4---8---8---8---8-------------------5---5---5---5---|
G4---4---4---4---8---8---8---8---4---4---4---4---6---6---6---6---|
D4---4---4---4---8---8---8---8---6---6---6---6---6---6---6---6---|
A2---2---2---2---6---6---6---6---6---6---6---6---4---4---4---4---|
E--------------------------------4---4---4---4-------------------|

 1 & 2 & 3 & 4 & 1 & 2 & 3 & 4 & 1 & 2 & 3 & 4 & 1 & 2 & 3 & 4 &
 E               G       A       B
e----------------------------------------------------------------|
B--------------------------------4---4---4---4---4---4---4---4---|
G1---1---1---1---4---4---6---6---4---4---4---4---4---4---4---4---|
D2---2---2---2---5---5---7---7---4---4---4---4---4---4---4---4---|
A2---2---2---2---5---5---7---7---2---2---2---2---2---2---2---2---|
E0---0---0---0---3---3---5---5-----------------------------------|

 1 & 2 & 3 & 4 & 1 & 2 & 3 & 4 &

e--------------------------------|
B444-4-------444-4---------------|
G444-4-------444-4---------------|
D444-4-------444-4---------------|
A222-2-------222-2---------------|
E--------------------------------|
 [3]         [3]


==VERSE var.2==
__Rhythm Guitar__
 1 & 2 & 3 & 4 & 1 & 2 & 3 & 4 & 1 & 2 & 3 & 4 & 1 & 2 & 3 & 4 &
 B               D#              Gm              C#m
e----------------------------------------------------------------|
B4---4---4---4---8---8---8---8-------------------5---5---5---5---|
G4---4---4---4---8---8---8---8---4---4---4---4---6---6---6---6---|
D4---4---4---4---8---8---8---8---6---6---6---6---6---6---6---6---|
A2---2---2---2---6---6---6---6---6---6---6---6---4---4---4---4---|
E--------------------------------4---4---4---4-------------------|

 1 & 2 & 3 & 4 & 1 & 2 & 3 & 4 & 1 & 2 & 3 & 4 & 1 & 2 & 3 & 4 &
 E               G       A       B               G       A
e----------------------------------------------------------------|
B--------------------------------4---4---4---4-------------------|
G1---1---1---1---4---4---6---6---4---4---4---4---444-4---666-6---|
D2---2---2---2---5---5---7---7---4---4---4---4---555-5---777-7---|
A2---2---2---2---5---5---7---7---2---2---2---2---555-5---777-7---|
E0---0---0---0---3---3---5---5-------------------333-3---555-5---|
                                                 [3]     [3]


==BRIDGE==
__Rhythm Guitar__
 1 & 2 & 3 & 4 & 1 & 2 & 3 & 4 & 1 & 2 & 3 & 4 & 1 & 2 & 3 & 4 &
 C#m             B               A               E
e----------------------------------------------------------------|
B5---------------4---------------2-------------------------------|
G6---------------4---------------2---------------1---------------|
D6---------------4---------------2---------------2---------------|
A4---------------2---------------0---------------2---------------|
E------------------------------------------------0---------------|

 1 & 2 & 3 & 4 & 1 & 2 & 3 & 4 & 1 & 2 & 3 & 4 & 1 & 2 & 3 & 4 &
 C#m             B               A               E
e----------------------------------------------------------------|
B5---------------4---------------2-------------------------------|
G6---------------4---------------2---------------1---------------|
D6---------------4---------------2---------------2---------------|
A4---------------2---------------0---------------2---------------|
E------------------------------------------------0---------------|

 1 & 2 & 3 & 4 & 1 & 2 & 3 & 4 & 1 & 2 & 3 & 4 & 1 & 2 & 3 & 4 &
 C#m            D#m              G               A
e----------------------------------------------------------------|
B5--------------7------------------------------------------------|
G6--------------8----------------4---4---4---4---6---6---6---6---|
D6--------------8----------------5---5---5---5---7---7---7---7---|
A4--------------6----------------5---5---5---5---7---7---7---7---|
E--------------------------------3---3---3---3---5---5---5---5---|


==LEAD FIGURES==
__Lead Fig.1__
 1 & 2 & 3 & 4 & 1 & 2 & 3 & 4 & 1 & 2 & 3 & 4 & 1 & 2 & 3 & 4 &
e----------------------------------------------------------------|
B5---5---5---5---4---4---4---4---5---5---5---5---5---5---5---5---|
G----------------------------------------------------------------|
D----------------------------------------------------------------|
A----------------------------------------------------------------|
E----------------------------------------------------------------|

 1 & 2 & 3 & 4 & 1 & 2 & 3 & 4 & 1 & 2 & 3 & 4 & 1 & 2 & 3 & 4 &
e----------------------------------------------------------------|
B5---5---5---5---4---4---4---4---5---5---5---5---5---5---5---5---|
G----------------------------------------------------------------|
D----------------------------------------------------------------|
A----------------------------------------------------------------|
E----------------------------------------------------------------|

 1 & 2 & 3 & 4 & 1 & 2 & 3 & 4 & 1 & 2 & 3 & 4 & 1 & 2 & 3 & 4 &
e----------------------------------------------------------------|
B5---5---5---5---4---4---4---4---6---6---6---6---7---7---7---7---|
G----------------------------------------------------------------|
D----------------------------------------------------------------|
A----------------------------------------------------------------|
E----------------------------------------------------------------|

__Lead Fig.2__
 1 & 2 & 3 & 4 & 1 & 2 & 3 & 4 & 1 & 2 & 3 & 4 & 1 & 2 & 3 & 4 &
e----------------------------------------------------------------|
B--------4-5---7-----5---4-5---7---------4-5---7-----5---4-------|
G----------------------------------------------------------4-----|
D------------------------------------------------------------6---|
A----------------------------------------------------------------|
E----------------------------------------------------------------|

__Lead Fig.3__
 1 & 2 & 3 & 4 & 1 & 2 & 3 & 4 & 1 & 2 & 3 & 4 & 1 & 2 & 3 & 4 &
e----------------------------------------------------------------|
B----------------------------------------------------------------|
G2-------------------3-----------2-------------------3-----------|
D--------3-------------2-----------------3-------------3---------|
A----------------------------------------------------------------|
E----------------------------------------------------------------|

__Lead Fig.4__
 1 & 2 & 3 & 4 & 1 & 2 & 3 & 4 & 1 & 2 & 3 & 4 & 1 & 2 & 3 & 4 &
e----------------------------------------------------------------|
B----------------------------------------------------------------|
G----------------------------------------------------------------|
D8-------8-------6-------6-------4-------4-------4-------4-------|
A----9-------9-------7-------7-------6-------6-------6-------6---|
E----------------------------------------------------------------|

 1 & 2 & 3 & 4 & 1 & 2 & 3 & 4 & 1 & 2 & 3 & 4 & 1 & 2 & 3 & 4 &
e----------------------------------------------------------------|
B----------------------------------------------------------------|
G----------------------------------------------------------------|
D8-------8-------6-------6-------4-------4-------4-------4-------|
A----9-------9-------7-------7-------6-------6-------6-------6---|
E----------------------------------------------------------------|

__Lead Fig.5__
 1 & 2 & 3 & 4 & 1 & 2 & 3 & 4 &
e--------------------------------|
B--------------------------------|
G--------------------------------|
D----------------3---3---4---4---|
A--------------------------------|
E--------------------------------|


INTRO
VERSE var.1
VERSE var.2 x2
BRIDGE w/ Lead Fig.1
VERSE var.2 x2
BRIDGE w/ Lead Fig.1
VERSE var.1 w/ Lead Fig.2 (start lead on last measure of previous section)
VERSE var.2 w/ Lead Fig.3 (start lead on 7th measure of this section)
first 8 measures of BRIDGE w/ Lead Fig.4
BRIDGE w/ Lead Fig.1
VERSE var.2 w/ Lead Fig.2 (start lead on last measure of previous section)
VERSE var.2 w/ Lead Fig.5 (start lead on second to last measure of this section)
repeat last 2 measures of previous section 2 times w/ Lead Fig.5





Comments


Popular Infant Sorrow tabs & chords
Bangers Beans And Mash Chords
Foh Chords
Furry Walls Chords
Furry Walls 1 Chords
Going Up 1 Chords
Inside Of You Chords
I Am Jesus Tabs
Going Up Ukulele
Inside Of You Ukulele
Weve Got To Do Something Ukulele


Song lyrics



↑ Back to top | Tablatures and chords are parodies/interpretations of the original songs. You may use it for private study, scholarship, research or language learning purposes only
© 2014 AZChords.com Contact us | Privacy policy | DMCA | Add/correct tabs | Request tabs | Top 50 tabs