» » »

In Extremo, Villeman Og Magnhild Bass tabs (ver.1)

Artists:  A B C D E F G H I J K L M N O P Q R S T U V W X Y Z # 

Villeman Og Magnhild Bass tabs (ver.1)

In Extremo Tabs
Rating:
0/5 (0 votes)
Villeman Og Magnhild lessons Tabs too difficult? Try these video lessons and learn fast
                Slide:
|------|
|------|
|------|
|-/7\--|
|------|

Main Riff:
|---------------------------------------------------|
|---------------------------------------------------|
|---------------------------------------------------|
|-5--3--1--0--5--3--1--0--3--1--0-----3--1--3--5--5-|
|----------------------------------1----------------|

Slide + Main Riff

Slide 

Bridge
|---------------------------------|
|---------------------------------|
|---------------------------------|
|-5555555555555555555555555555555-| Don't know how often, but you'll find out if you listen to this part.
|---------------------------------|

Slide + Main Riff

Slide

Bridge

Slide + Main Riff 2x

Slide

Last Riff
|----------------------------------------------------|
|----------------------------------------------------|
|----------------------------------------------------|
|-5--3--1--0--5--3--1--0--3--1--0-----3--1--3--5--5\-|
|----------------------------------1-----------------|
            

comments powered by Disqus
↑ Back to top | In Extremo Bass for Villeman Og Magnhild. Lyrics for acoustic guitar and electric guitar. Tablatures and chords are parodies/interpretations of the original songs. You may use it for private study, scholarship, research or language learning purposes only