» » »

In Extremo, Villeman Og Magnhild Tabs (ver.1)

Artists:  A B C D E F G H I J K L M N O P Q R S T U V W X Y Z # 

Villeman Og Magnhild Tabs (ver.1)

In Extremo Tabs
Rating:
0/5 (0 votes)
Villeman Og Magnhild lessons Tabs too difficult? Try these video lessons and learn fast
                Standard tuning


Detailed scheme of the song:
----------------------------

intro:
0:00              drums
0:09              drums + vocals
1:04              'bourdon-pipes' of the bagpipes
1:19  2x (1)      bagpipes play main theme
1:46              guitar starts 'screaming' on background

main:
2:00  2x (1)&(2)  guitar + bagpipes main theme
2:30  2x (3)      Am (palm muted)
2:36  (2)         guitar + vocals
2:51  2x (3)      Am (palm muted)
2:56  (2)         guitar + vocals

outro:
3:12  2x (1)&(2)  guitar + bagpipes main theme



Listen to the record for the rhythm!!!



(1)

I transcribed the main theme (bagpipes) for 2 guitars:

Guitar 1:

|-(12)-------------------------12-12-|-17-12-12-10----------10-12-12-|
|------10-10-12-13-12-10----10-------|-------------13-12-13----------|
|------------------------12----------|-------------------------------|
|------------------------------------|-------------------------------|
|------------------------------------|-------------------------------|
|------------------------------------|-------------------------------|

|----------------------|--------------------------------------||
|-15-12-13-10-12-10-13-|-13-15-12-12-12-10-10-10-10-8-8-10-10-||
|----------------------|--------------------------------------||
|----------------------|--------------------------------------||
|----------------------|--------------------------------------||
|----------------------|--------------------------------------||

Guitar 2:

|-------------------------|-5-------------------|
|-(5)-----------------5-5-|---5-5-3-------3-5---|
|-----2-2-4-5-4-2---2-----|---------5-4-5-----4-|
|-----------------5-------|---------------------|
|-------------------------|---------------------|
|-------------------------|---------------------|

|---------------|-------------------------||
|-3-------------|---3---------------------||
|---4-5-2-4-2-5-|-5---4-4-2-2-2-2-----2-2-||
|---------------|-----------------5-5-----||
|---------------|-------------------------||
|---------------|-------------------------||



(2)

Am        G         F         E         E
|---------|---------|---------|---------|---------|
|---------|---------|---------|---------|---------|
|---------|---------|---------|---------|---------|
|-7---7-7-|-5---5-5-|--3---3--|----2----|---------|
|-7---7-7-|-5---5-5-|--3---3--|----2----|---------|
|-5---5-5-|-3---3-3-|--1---1--|----0----|---------|

Am        G         F         E         E
|---------|---------|---------|---------|---------|
|---------|---------|---------|---------|---------|
|---------|---------|---------|---------|---------|
|-7---7-7-|-5---5-5-|--3---3--|----2----|---------|
|-7---7-7-|-5---5-5-|--3---3--|----2----|---------|
|-5---5-5-|-3---3-3-|--1---1--|----0----|---------|

G         F         E         C         C
|---------|---------|---------|---------|-----------|
|---------|---------|---------|---------|-----------|
|---------|---------|---------|---------|-----------|
|-5---5-5-|-3---3-3-|--2---2--|----10---|-----10-10-|
|-5---5-5-|-3---3-3-|--2---2--|----10---|-----------|
|-3---3-3-|-1---1-1-|--0---0--|----8----|-----------|

G         F         G         Am        Am
|---------|---------|---------|---------|---------|
|---------|---------|---------|---------|---------|
|---------|---------|---------|---------|---------|
|-5---5-5-|-3---3-3-|--5---5--|----7----|---------|
|-5---5-5-|-3---3-3-|--5---5--|----7----|---------|
|-3---3-3-|-1---1-1-|--3---3--|----5----|---------|



(3)

Am - PALM MUTED!!!
|-------|-------|-------|-------|
|-------|-------|-------|-------|
|-------|-------|-------|-------|
|-7-7-7-|-7-7-7-|-7-7-7-|-7-7-7-|
|-7-7-7-|-7-7-7-|-7-7-7-|-7-7-7-|
|-3-3-3-|-3-3-3-|-3-3-3-|-3-3-3-|
            

comments powered by Disqus
↑ Back to top | In Extremo Tabs for Villeman Og Magnhild. Lyrics for acoustic guitar and electric guitar. Tablatures and chords are parodies/interpretations of the original songs. You may use it for private study, scholarship, research or language learning purposes only