» » »

In Extremo, Liam Tabs (ver.2)

Artists:  A B C D E F G H I J K L M N O P Q R S T U V W X Y Z # 

Liam Tabs (ver.2)

In Extremo Tabs
 Rating:
4.3/5 (6 votes)
Liam lessons Tabs too difficult? Try these video lessons and learn fast
1
                

tuning: C-g-c-f-a-d (one whole step down, then drop-c...you can also play it on normal
drop-d, just play the "c" an octave higher)

-------------------------------------------------------

The song is in my oppinion one of the best songs ever written by In Extremo, but also
pretty easy to play, there's no guitar during the verses, the chorus is just the intr
played twice. I tabbed it as correctly as I could, since I'm not familiar with this kind
of tuning.

Intro/Chorus

d|--------------------------------------------------------------------------------------------------|
a|--------------------------------------------------------------------------------------------------|
f|--------------------------------------------------------------------------------------------------|
c|-2-4-2-4---2-4-6-7---2-2---0---3---10-9-9---10-9-2-4-2-4---2-4-6-7---2-2---0---3---0-0-0-2--2-2-2-|
g|-2-4-2-4---2-4-6-7---2-2---0-------10-9-9---10-9-2-4-2-4---2-4-6-7---2-2---0-------0-0-0-2--2-2-2-|
c|-2-4-2-4---2-4-6-7---2-2---0-------10-9-9---10-9-2-4-2-4---2-4-6-7---2-2---0-------0-0-0-2--2-2-2-|



Prechorus:

d|-------------------------------|
a|-------------------------------|
f|-------------------------------|
c|-4---7---9---12---12-12-12-12--|
g|-4---7---9---12---12-12-12-12--|
c|-4---7---9---12---12-12-12-12--|



Bridge:

d|-------------------------------|----------------|-------------------------------|
a|-------------------------------|----------------|-------------------------------|
f|-------------------------------|----------------|-------------------------------|
c|-4---11---4---11---0-0-0-2-2-2-|-4---7---9---12-|-4---7---9---12---12-12-12-12--|
g|-4---11---4---11---0-0-0-2-2-2-|-4---7---9---12-|-4---7---9---12---12-12-12-12--|
c|-4---11---4---11---0-0-0-2-2-2-|-4---7---9---12-|-4---7---9---12---12-12-12-12--|
            
Submit corrections

comments powered by Disqus
↑ Back to top | In Extremo Tabs for Liam. Lyrics for acoustic guitar and electric guitar. 1 Tablatures and chords are parodies/interpretations of the original songs. You may use it for private study, scholarship, research or language learning purposes only