» » »

Frei Zu Sein Tabs (ver.2)

Artists:  A B C D E F G H I J K L M N O P Q R S T U V W X Y Z # 

Frei Zu Sein Tabs (ver.2)

In Extremo
Rating:
0/5 (0 votes)

Hard to play? Try these video lessons and learn fast.
                Hey guys this is my first tab i hope you will enjoy it....

In Extremo-Frei zu Sein

Tuning:Standard
*->Play Freestyle
2xIntro
(Backpipes)
e------------------------------------|
h-----5-3-1-8-5-6-5------------------|
g--2--------------------7-5----------|
d------------------------------------|
a------------------------------------|
e------------------------------------|

e------------------------------------|
h-----5-3-1-6-5-6-5------------------|
g--2--------------------7-5----------|
d------------------------------------|
a------------------------------------|
e------------------------------------|

e-----------------------------------------|
h-----5-3-1-8-5-6-5------6-5-3-5-3--------|
g--2--------------------7-5---------------|
d-----------------------------------------|
a-----------------------------------------|
e-----------------------------------------|

Guitar:
e-------------------------------------|
h-------------------------------------|
g-------5*----------------------------|
d--7*--3*--3*---5*--------------------|
a--7*--3*--3*---5*--------------------|
e--5*-------1*---3*-------------------|

Verse
e--------------------------------------------------------------------|
h--------------------------------------------------------------------|
g--------------------------------------------------------------------|
d-3-3-X-X-X-3-X-3*-2-2-X-X-X-2-X-2*----------------------------------|
a-3-3-X-X-X-3-X-3*-2-2-X-X-X-2-X-2*----------------------------------|
e-1-1-X-X-X-1-X-1*-0-0-X-X-X-0-X-0*----------------------------------|
e--------------------------------------------------------------------|


h--------------------------------------------------------------------|
g--------------------------------------------------------------------|
d-3-3-X-X-X-3-X-3*-5-X-X-X-5-X-5*------------------------------------|
a-3-3-X-X-X-3-X-3*-5-X-X-X-5-X-5*------------------------------------|
e-1-1-X-X-X-1-X-1*-5-X-X-X-5-X-5*------------------------------------|

Intro/Pre-Chorus:
Backpipes
e------------------------------------|
h-----5-3-1-8-5-6-5------------------|
g--2--------------------7-5----------|
d------------------------------------|
a------------------------------------|
e------------------------------------|

e------------------------------------|
h-----5-3-1-6-5-6-5------------------|
g--2--------------------7-5----------|
d------------------------------------|
a------------------------------------|
e------------------------------------|

e-----------------------------------------|
h-----5-3-1-8-5-6-5------6-5-3-5-3--------|
g--2--------------------7-5---------------|
d-----------------------------------------|
a-----------------------------------------|
e-----------------------------------------|

Guitar:
e-------------------------------------|
h-------------------------------------|
g-------5*----------------------------|
d--7*--3*--3*---5*--------------------|
a--7*--3*--3*---5*--------------------|
e--5*-------1*---3*-------------------|

And that's it...
            
Hard to play? Try these video lessons and learn fast. | Correct




comments powered by Disqus
↑ Back to top | Tablatures and chords are parodies/interpretations of the original songs. You may use it for private study, scholarship, research or language learning purposes only