» » »

Imogen Heap, Hide And Seek Tabs (ver.3)

Artists:  A B C D E F G H I J K L M N O P Q R S T U V W X Y Z # 

Hide And Seek Tabs (ver.3)

Imogen Heap Tabs
 Rating:
4.4/5 (7 votes)
Hide And Seek lessons Tabs too difficult? Try these video lessons and learn fast
1
                -------------------------------------------------------------------------------
                             HIDE AND SEEK - Imogean Heap
-------------------------------------------------------------------------------

Tuning: Standard

Here is the tab for the melody to the song Hide and Seek by Imogean Heap. 

This is my first tab, and I know there are a few mistakes, and I will
correct them in the future. Listen to the song for the actual timing of 
the notes. ~ means slide, though there is plenty of sliding in the actual 
song, make sure you slide at these parts, again, listen to the song to know
when to slide and the length of notes and rests.


e|---------------------------------------------------------------------|
B|---------------------------------------------------------------------|
G|---------------------------------------------------------------------|
D|---------------------------------------------------------------------|
A|---------------------------------------------------------------------|
E|--------5----0---7---------4----2----5-----7------5----0----7--------|


e|---------------------------------------------------------------------|
B|---------------------------------------------------------------------|
G|--------------------------------------4--1---------------------------|
D|-----------------------------2--2------------------------------------|
A|--------------------------------------------------7--4---------------|
E|-----0--4------5--4--2-----------------------------------------------|


e|----------------------------------------------------------------------|
B|----------------------------------------------------------------------|
G|----------------------------------------------------------------------|
D|----7-----------------------------------------------------------------|
A|--------9----7--5---4--5--4--0----2---7-------------------------------|
E|------------------------------------------------2----9----------------|


e|-------------------------------------------------------------------------|
B|-------------------------------------------------------------------------|
G|-------------------------------------------------------------------------|
D|-------------------------------------------------------------------------|
A|-------------------------------------------------------------------------|
E|--5-----0--7----5----4----5----2---5----5-----0----7----5---4----7----4--|


e|-------------------------------------------------------------------------|
B|-------------------------------------------------------------------------|
G|-------------9---5-------------------------------------------------------|
D|---2---2-------------7---4-----------------------------------------------|
A|------------------------------12---9---7---5---5---4--0----2---9---------|
E|-------------------------------------------------------------------2—9---|


e|-------------------------------------------------------------------------|
B|-------------------------------------------------------------------------|
G|-------------------------------------------------------------------------|
D|--7-----6-----2---------------------------7---6~11---11~4----------------|
A|----------------7-----5-----4---7---9--4-------------------7---5---4---2-|
E|-------------------------------------------------------------------------|


e|-------------------------------------------------------------------|
B|-------------------------------------------------------------------|
G|-------------------------------------------------------------------|
D|-------------------------------------------------------------------|
A|-------------------------------------------------------------------|
E|-----5-----0----7------5----4------2---5---4--2--------------------|


e|----------------------------------------------------------------------|
B|----------------------------------------------------------------------|
G|----------------------------------------------------------------------|
D|----------------------------------------------------------------------|
A|----0---0-----2---2----0---2----4----5--------------------------------|
E|----------------------------------------------------------------------|


e|-----------------------------------------------------------------------------|
B|-----------------------------------------------------------------------------|
G|-----------------------------------------------------------------------------|
D|-2---2---11---9--------------------------------------------------------------|
A|----------------------7--4-----4-----(12)-----9---7--5--4-0-----------7---4--|
E|--------------------------------------------------------------0--0-----------|


e|---------------------------------------------------------------------|
B|---------------------------------------------------------------------|
G|---------------------------------------------------------------------|
D|--7----6-----2----7----5-----4---7---9---9----2----------------------|
A|-------------------------------------------------9----4--4--4-----0--|
E|---------------------------------------------------------------------|


e|----------------------------------------------------------------------|
B|------------------5~~~12----------------------------------------------|
G|-------2~~~9-------------------13----6--------------------------------|
D|------------------------------------------------7-----5-----4----3----|
A|----------------------------------------------------------------------|
E|----------------------------------------------------------------------|


e|-------------------------------------------------------------------------|
B|-------------------------------------------------------------------------|
G|-------------------------------------------------------------------------|
D|-------------------------------------------------------------------------|
A|------------------------------4----7--9--9--7--2---4---------------------|
E|--2---5---5---9---7---5--------------------------------7--7--9--7--5--4--|


e|------------------------------------------------------------------------|
B|------------------------------------------------------------------------|
G|---------------------------------------------------------2--1---2-------|
D|--------------------------------2--4--4----11--9--9--9---------------2--|
A|------------------------4-----------------------------------------------|
E|--2----5--5--9----7--5--------------------------------------------------|

e|-------------------------------------------------------------------------------|
B|-------------------------------------------------------------------------------|
G|-------------------------------------------------------------------------------|
D|-------------------------------------------------------------------------------|
A|-------------------------------------------------------------------------------|
E|-2--5--5--9---7--5----14--14--14----12--9--7--12--9--9----7--7--12--9--7--5--4-|


e|------------------------------------------------------------|
B|------------------------------------------------------------|
G|-------------------------------------6--6--4--6--4----------|
D|------------------------------------------------------------|
A|-----0--0--4--2--4----4--7--9--9----------------------------|
E|------------------------------------------------------------|


e|-----------------------------------------------------------------|
B|-----------------------------------------------------------------|
G|-----------------------------------------------------------------|
D|--7---7---7---7---6--6--6--6--6----4---4---4---4---2--2--2--2--2-|
A|-----------------------------------------------------------------|
E|-----------------------------------------------------------------|


e|-------------------------------------------------------------------------|
B|-------------------------------------------------------------------------|
G|-------------------------------------------------------------------------|
D|-7---7---7--7--9--6--6--6--6--6--6--6--4--4--4--4---4--4--2---2--2--2--2-|
A|-------------------------------------------------------------------------|
E|-------------------------------------------------------------------------|


e|------------------------------------------------------------------------|
B|------------------------------------------------------------------------|
G|------------------------------------------------------------------------|
D|---7----14----6-----14----11---------7-----14----6----14----11----------|
A|------------------------------------------------------------------------|
E|------------------------------------------------------------------------|


e|-------------------------------------------------------------------------|
B|-------------------------------------------------------------------------|
G|-2-----9-----2-----5-----6-----------------------------------------------|
D|-2-----9-----1-----6-----6--------7-----14----6-----14-----11---12----7--|
A|-------------------------------------------------------------------------|
E|-------------------------------------------------------------------------|
            
Submit corrections

comments powered by Disqus
↑ Back to top | Imogen Heap Tabs for Hide And Seek. Lyrics for acoustic guitar and electric guitar. 1 Tablatures and chords are parodies/interpretations of the original songs. You may use it for private study, scholarship, research or language learning purposes only