» » »

Imogen Heap, Hide And Seek Tabs (ver.2)

Artists:  A B C D E F G H I J K L M N O P Q R S T U V W X Y Z # 

Hide And Seek Tabs (ver.2)

Imogen Heap Tabs
Rating:
5/5 (1 vote)
Hide And Seek lessons Tabs too difficult? Try these video lessons and learn fast
                The tab before this one wasn't too bad except it had a quite a few mistakes
so i just made the corrections and a few changes.Please rate and comment. Thank you:D

e|------------------------------------------------------------------------|
B|------------------------------------------------------------------------|
G|---------------------------------------------4-1-----2------------------|
D|----------------------------------------2-2------2------4-2-0-----------|
A|---------------------------------------------------4----------4-5br-0---|
E|-5--0-4---4--2-5--7-5--0-4--0-4--5-4-2----------------------------------|

e|------------------------------------------------------------------------|
B|------------------------------------------------------------------------|
G|-----------------------------------------------------------4-1-------2--|
D|------------------------------------------------------2-2------2--------|
A|-2/7-------------------------------------------------------------4-4----|
E|------2/9-/5----5--0-7--5-4--5-2--5-5--0-7--5-4--7-5--------------------|

e|-----------------------------------------------------5--4/9--9/2--------|
B|-------------------------10~--9~---------------7------------------------|
G|----------------------------------9~---9-7-6/9---6----------------------|
D|-4-2-0-0----------------------------------------------------------------|
A|---------4-0--2/9-------------------------------------------------------|
E|-------------------2/9--------------------------------------------------|

e|------------------------------------------------------------------------|
B|-5-3--------------------------------------------------------------------|
G|-----6-4----------------------------------------------------------2-----|
D|------------------2-------------------------------2-2/11/9--2-----------|
A|--------------------4------------------------4/5--------------4-4-------|
E|----------5--0-7-------2/5-/2--5-5--7-7--5-7----------------------------|

e|------------------------------------------------------------5/12-12/19--|
B|-------------------------10~--9~--------------7-7-----------------------|
G|----------------------------------9~--9-7-6/9-----666-------------------|
D|-4-2-0-----------2-----------------------------------666----------------|
A|-------4-0--0-0----4~/5----------------------------------7--------------|
E|------------------------------------------------------------------------|

e|-16/9-------------------------------------------------------------------|
B|-------5--3-----------------------5-7-7-5-------------------------------|
G|-------------6--4---------------6---------4-6--44-6-4-------------------|
D|--------------------4-7-6--4/2------------------------7/6--4-7-6--4/2---|
A|------------------------------------------------------------------------|
E|------------------------------------------------------------------------|

e|----------9/7-7--5-4-5--------------------------------------------------|
B|---5-7-7---------------5------------7-777/5---5-------------------------|
G|-6-----------------------------------------6/4--6-44-6-4----------------|
D|--------------------------4-7-6--4/2---------------------7/6--7-6-7/9/11|
A|------------------------------------------------------------------------|
E|------------------------------------------------------------------------|

e|-----------9/7-7~----5-5-5-5-44444-----------------5-5-557-44442--------|
B|-----5-6-7--------------------------7-7-7-7-55555-----------------------|
G|-9/6--------------------------------------------------------------------|
D|------------------------------------------------------------------------|
A|------------------------------------------------------------------------|
E|------------------------------------------------------------------------|

e|----------------5/12-4/12--9~--5/12-4/12--9~--5/12-4/12--9~--5/12-4/12--|
B|-77777-7-5-555----------------------------------------------------------|
G|------------------------------------------------------------------------|
D|------------------------------------------------------------------------|
A|------------------------------------------------------------------------|
E|------------------------------------------------------------------------|

e|-9~--10~--0~-----|
B|----------2~-----|
G|----------2~-----|
D|----------2~-----|
A|----------0~-----|
E|-----------------|
            

comments powered by Disqus
↑ Back to top | Imogen Heap Tabs for Hide And Seek. Lyrics for acoustic guitar and electric guitar. Tablatures and chords are parodies/interpretations of the original songs. You may use it for private study, scholarship, research or language learning purposes only