» » »

Hide And Seek Tabs (ver.1)

Artists:  A B C D E F G H I J K L M N O P Q R S T U V W X Y Z # 

Hide And Seek Tabs (ver.1)

Imogen Heap
Rating:
2/5 (2 votes)

Tabs too difficult? Try these video lessons and learn fast.
                Listen to the song to figure out the timing

e|------------------2-----------------------2--|
b|--2-----0---------3-----2-----0-----------3--|
g|--2-----1---------2---4-2-----1---2-----4-2--|
d|--2---2-2---4---2-------2---2-2-----4--------|
a|--------2---4-----------------2-----4--------|
E|------------2-----------------------2--------|

e|--------7-------------------------------------------------|
b|--5-5-----9----------10-10-----------5-----9--------------|
g|----6-----9---9-11------11-9-7-6-7-6-6-----9-----11---11--|
d|----7-----9-----11------12-----------7---9-9-----11---12--|
a|----7-----------9--------------------7---------9-9----12--|
E|------------------------------------------------------10--|

e|-------------------2-----------------------2--|
b|--2-----0----------3-----2-----0-----------3--|
g|--2-----1--2-----4-2---4-2-----1---2-----4-2--|
d|--2---2-2----4-----------2---2-2-----4--------|
a|--------2----4-----------------2-----4--------|
E|-------------2-----------------------2--------|

e|--------7-----------------------------------------------|
b|--5-5-----9----------10-10---------5-----9--------------|
g|----6-----9---9-11------11-9-7-7-6-6-----9-----11---11--|
d|----7-----9-----11------12---------7---9-9-----11---12--|
a|----7-----------9------------------7---------9-9----12--|
E|----------------------------------------------------10--|

e|--5----------------------------------|
b|--5---9------------------------------|
g|--6---9---9-----9---11------9-11-11--|
d|------9---11--------12---11------11--|
a|----------9---------12-----------9---|
E|--------------------10---------------|

e|--5-----9---9-----------------------|
b|--5---9-----7-7---------------------|
g|--6---9-----9------9----7---11---9--|
d|------9------------11-------11---9--|
a|-------------------11-------9----7--|
E|------------------------------------|

e|--------------------2-----------------------2--|
b|--2-----0---2-------3-----2-----0---------2-3--|
g|--2-----1-----2-----2---2-2-----1---2-4-----2--|
d|--2---2-2-----4---4---4---2---2-2-----4--------|
a|--0-----2-----4-----------0-----2-----4--------|
E|--------------2--------------------------------|

e|--------9-7----------------------------------------------|
b|--5-5-----9-----------10-10----------5--------9----------|
g|----6-----9---9-11-------11-9-7\6----6--------9-9----10--|
d|----7-----9-----11-11----12--------7-7-7-7\---9---11-11--|
a|----7-----------9--------12----------7---------------11--|
E|-----------------------------------------------------9---|

e|--5---------------------------------------------------------|
b|--5---9-----------------------------------------------------|
g|--6---9---9-----9---11------9-11-11-------------------------|
d|------9---11--------12---11------11--11-11-11---------------|
a|----------9---------12-----------9------------12-12-12-11\7-|
E|--------------------10--------------------------------------|

e|--5-5/12-12--12-12/19-19--16\9-9----------------------|
b|--5----------9-----------------7----------------------|
g|--6----------9-----------------9----9----7----11---9--|
d|------------------------------------11---9----11---9--|
a|------------------------------------11---9----9----7--|
E|------------------------------------------------------|

e|------------------------------------------------------|
b|------------------------------------------------------|
g|-------------14------9h11-11p9------11----------------|
d|-------------14---11-----------9-11-11-9-9-11-9-------|
a|--9-11-12-12-12---------------------9-----------12-11-|
E|------------------------------------------------------|

e|-----------------------------9----11-----------|
b|-------------------------------12-12-10-9-10---|
g|-------------14------9h11-11------11---------9-|
d|-------------14---11---------------------------|
a|--9-11-12-12-12--------------------------------|
E|-----------------------------------------------|

e|----------------------------------------------------------------|
b|----------------------------------------------------------------|
g|-------------14---11-11-11-11-11-9------9\6-6-------------------|
d|-------------14---11---------------11-9-----6--9-9-9-11-9-------|
a|--9-11-12-12-12----9------------------------4-------------12-11-|
E|----------------------------------------------------------------|

e|-----------------------------9--------|
b|-------------------------------12-12--|
g|-------------14------9h11-11------11--|
d|-------------14---11--------------13--|
a|--9-11-12-12-12-----------------------|
E|--------------------------------------|

e|--------------------------------------------------------|
b|--10--10--10--10--9-9-9-9-9-----------------------------|
g|--9---9---9---9---9-9-9-9-9---11--11--11--11--9-9-9-9-9-|
d|--11--11--11--11--9-9-9-9-9---11--11--11--11--9-9-9-9-9-|
a|------------------------------9---9---9---9---7-7-7-7-7-|
E|--------------------------------------------------------|

e|--------------------------------------------------------|
b|--10--10--10--12--9-9-9-9-9-----------------------------|
g|--9---9---9---9---9-9-9-9-9---11--11--11--11--9-9-9-9-9-|
d|--11--11--11--11--9-9-9-9-9---11--11--11--11--9-9-9-9-9-|
a|------------------------------9---9---9---9---7-7-7-7-7-|
E|--------------------------------------------------------|

e|---------------------------------|
b|--10/17--9/17--14----------------|
g|---------------13----------------|
d|---------------------14-12-11-12-|
a|---------------------------------|
E|---------------------------------|

e|-------------------------------------|
b|--10/17--9/17--14--15----------------|
g|---------------13--14-------------9--|
d|----------------------14-12-11-12-11-|
a|----------------------------------0--|
E|-------------------------------------|


Enjoy!
            
Tabs too difficult? Try these video lessons and learn fast.




comments powered by Disqus
↑ Back to top | Tablatures and chords are parodies/interpretations of the original songs. You may use it for private study, scholarship, research or language learning purposes only