>
 >
Triumph 2

Triumph 2 Guitar Tabs

Immortal - Triumph 2 chords, tabs, tablatures, lyrics

Guitar lessons | Add/correct | Request | Top 50 tabs Artists:  A B C D E F G H I J K L M N O P Q R S T U V W X Y Z 0-9

Triumph 2 Guitar Tabs – Immortal

CD, Sheet music, Poster

Do you like Triumph 2? Share with your friends now
TabsTabs v2Tabs v3
                        IMMORTAL - TRIUMPH
                        From the Album DAMNED IN BLACK
                        Copyright 2000 OSMOSE PRODUCTIONS
                        Version 2.0 - SEPTEMBER 2001

Corrected by: death8699

For Questions, Comments, Newest Version, or Corrections contact

Check Out Death Warp, With More Transcriptions On It:

Tablature Notation
------------------
.  - palm mute                  /  - slide up to
\  - slide down to              ~  - vibrato
h  - hammer on                  b  - bend
p  - pull off                   Suffixes for bend
ph - pinch harmonic             f - full bend    h - half bend
*  - see comment                r - release      t - tap bend
X  - percussion mute            ~ - vibrato bend
@  - slight palm mute           () - ghost note, sustained note

Standard Tuning

TRIUMPH

(Drums)

Intro                                              Pick slide
|-----------------------------------------------------------|
|-----------------------------------------------------------|
|-----------------------------------------------------------|
|-----------------------------------------------------------|
|-3-2-----------------------------3-2-----------------------|
|-1-0-000-000-000-000-000-000-000-1-0-000-000-000--x\-------|
      ... ... ... ... ... ... ...     ... ... ...


Riff 1
|---------------------------------------------------------------|
|---------------------------------------------------------------|
|---------------------------------------------------------------|
|-------------------------5544-------------------------6655-----|
|-3-2---------------------3322-3-2---------------------4433-3-2-|
|-1-0-000-000-000-000-000------1-0-000-000-000-000-000------1-0-|
      ... ... ... ... ...          ... ... ... ... ...


Riff 2                         1tx
|---------------------------------|
|---------------------------------|
|---------------------------------|
|-7/8-----8\7-7/8-----7/8-8\5-5/7-|
|---------------------------------|
|-5/6-000-6\5-5/6-000-5/6-6\3-3/5-|
      ...         ...


Riff 1 4tx


Riff 3                                                         2tx
|-----------------------------------------------------------------|
|-----------------------------------------------------------------|
|-----------------------------------------------------------------|
|-7/8-----8\7-7/8-----7/8-8\5-5/7-7/8-----8\7-7/8-----7/8---------|
|---------------------------------------------------------8\5-5\3-|
|-5/6-000-6\5-5/6-000-5/6-6\3-3/5-5/6-000-6\5-5/6-000-5/6-6\3-3\1-|
      ...         ...                 ...         ...


Riff 4
|--------------------------------------------------|
|--------------------------------------------------|
|--------------------------------------------------|
|---5-4------4-3-------5\4-------4\3------5-4------|
|-2-3-2------2-1-------3\2-------2\1------3-2------|
|-0-----0000-----00000-----00000-----0000-----0000-|
|       ....     .....     .....     ....     ....
|
|
|                         4tx
|----------------------------|
|----------------------------|
|----------------------------|
|--4-3--------5\4--------4\3-|
|--2-1------4-3\2------3-2\1-|
|------2222-2-----1111-1-----|
       ....       ....

Riff 5
|-----------------------------------------------------|
|-----------------------------------------------------|
|-----------------------------------------------------|
|-----------------------------------------------------|
|-2--7----5----4----7----5----4----5\4-2--7----5----4-|
|-0--5-00-3-00-2-00-5-00-3-00-2-00-3\2-0--5-00-3-00-2-|
|      ..   ..   ..   ..   ..   ..            ..   ..
|
|
|1.-------------------|2.---------------|
|---------------------|-----------------|
|---------------------|-----------------|
|-7/8-8-------11/1212-|-----------------|
|---------------------|-----------------|
|-5/6-6-------9/10-10-|-2-0---------2---|
|-------0-000---------|-----3-2-3-2-0---|
        . ...           . . . . . .


Riff 4 2tx


Riff 6
|-----------------------------------------------------|
|-----------------------------------------------------|
|-----------------------------------------------------|
|-----------------------------------------------------|
|-2--7----5----4----7----5----4----5\4-2--7----5----4-|
|-0--5-00-3-00-2-00-5-00-3-00-2-00-3\2-0--5-00-3-00-2-|
|      ..   ..   ..   ..   ..   ..            ..   ..
|
|
|1&3.-----------------|2.-------------------|
|---------------------|---------------------|
|---------------------|---------------------|
|-7/8-8-------11/1212-|-7/8-8-------8\5-5/8-|
|---------------------|---------------------|
|-5/6-6-------9/10-10-|-5/6-6-------6\3-3/6-|
|-------0-000---------|-------0-000---------|
|       . ...                 . ...
|
|
|4.----------------------------|
|------------------------------|
|------------------------------|
|------------------------------|
|------------------------------|
|-2-0---------2----2-0---------|
|-----3-2-3-2-0--------3-2-3-2-|
  . . . . . .      . . . . . .


Intro
Riff 1 4tx
Riff 2 1tx
Riff 1 4tx
Riff 3 2tx


Riff 7 1&32.----------------------------|4.---------------------------|
|---------|-----------------------------|-----------------------------|
|---------|-----------------------------|-----------------------------|
|---------|-----------------------------|-----------------------4a.h.-|
|-----9-9-|-----------------------2a.h.-|-----------------------------|
|-----7-7-|-5--5-5--55-3--3-3--33-------|-5--5-5--55-3--3-3--33-------|
|-000-----|-3--3-3--33-1--1-1--11-------|-3--3-3--33-1--1-1--11-------|


Riff 8               4tx
|-----------------------|
|-----------------------|
|-----------------------|
|-----------------------|
|-5--5-5--55-8--8-8--88-|
|-3--3-3--33-6--6-6--66-|


Riff 9                  1.--------------------|2.----------------------|
|-----------------------|---------------------|------------------------|
|-----------------------|---------------------|------------------------|
|-----------------------|-5-----5-----5-----5-|------------------------|
|-----------------------|-5-----5-----5-----5-|-------------------5p4--|
|-----------------------|---------------------|------------------------|
|-3-333-6p3-3-3-333-6p3-|---333---333---333---|-2-222-2-222-2-222------|
  . ...     . . ...         ...   ...   ...     . ... . ... . ...


Riff 9 3tx
Riff 7 1tx
Riff 8 4tx
Riff 9 4tx
Riff 4 4tx
Riff 6 1tx
End on E5.





Comments


Popular Immortal tabs & chords
Blashyrkh Bass Tabs
Wrath From Above Bass Tabs
A Sign For The Norse Hordes To Ride Tabs
At The Heart Of Winter Intro Tabs
Battles In The North Tabs
Cursed Realms Of The Winterdemons Tabs
One By One 1 Tabs
Pure Holocaust Tabs
Sons Of Northern Darkness Tabs
Where Dark And Light Don't Differ Tabs


Song lyrics



↑ Back to top | Tablatures and chords are parodies/interpretations of the original songs. You may use it for private study, scholarship, research or language learning purposes only
© 2014 AZChords.com Contact us | Privacy policy | DMCA | Add/correct tabs | Request tabs | Top 50 tabs