>
 >
Triumph

Triumph Guitar Tabs

Immortal - Triumph chords, tabs, tablatures, lyrics

Guitar lessons | Add/correct | Request | Top 50 tabs Artists:  A B C D E F G H I J K L M N O P Q R S T U V W X Y Z 0-9

Triumph Guitar Tabs – Immortal

CD, Sheet music, Poster

Do you like Triumph? Share with your friends now
TabsTabs v2Tabs v3
PROPS GO TO: Ebon -Austca-

Tuning: EADGHE



Intro...

  
1x  Riff 1a [0.12-0.17]

||--------------------------------------------------------------------||
||--------------------------------------------------------------------||
||--------------------------------------------------------------------||
||-5\3----------------------------------------------------------------||
||-3\2-----------------------------3\2--------------------------------||
||-----000-000-000-000-000-000-000-1\0-000-000-000->>>>>>>>>>>>>>>>>--||
       ... ... ... ... ... ... ...     ... ... ...


2x  Riff 1b [0.17-0.27]

||--------------------------------------------------------------------||
||--------------------------------------------------------------------||
||--------------------------------------------------------------------||
||-------------------------5-5-4-4-------------------------6666-5555--||
||-3\2---------------------3-3-2-2-3\2---------------------4444-3333--||
||-1\0-000-000-000-000-000---------1\0-000-000-000-000-000------------||
       ... ... ... ... ...             ... ... ... ... ...


1x  Riff 2a [0.27-0.30]

||-----------------------------------||
||-----------------------------------||
||-----------------------------------||
||-----------------------------------||
||-7/8------8\7----7----7/8-8\5-5/7--||
||-5/6-0000-6\5-00-5-00-5/6-6\3-3/5--||
       ....     ..   ..


2x  Riff 1b [0.30-0.39]


2x  Riff 2b [0.39-0.49]

||--------------------------------------------------------------------||
||--------------------------------------------------------------------||
||--------------------------------------------------------------------||
||--------------------------------------------------------------------||
||-7/8------8\7----7----7/8-8\5-5/7-7/8------8\7----7----7/8-8\5-5/1--||
||-5/6-0000-6\5-00-5-00-5/6-6\3-3/5-5/6-0000-6\5-00-5-00-5/6-6\3-3/3--||
       ....     ..   ..                 ....     ..   ..


4x Riff 3  [0.49-1.16]
                                                                     
||-------------------------------------------------------------------------||
||-------------------------------------------------------------------------||
||-------------------------------------------------------------------------||
||----5-4------4-3-------5\4------4\3------5-4------4-3--------------------||
||-2--3-2------2-1-------3\2------2\1------3-2------2-1-005.....-4.......--||
||-0------0000-----00000-----00000----0000-----0000-----223.....-2.......--||
          ....     .....     .....    ....     ....     ..    


1x Riff 4a  [1.16-1.30]                           
                                                 |1                        |2
||-----------------------------------------------|-------------------------|----------------||
||-----------------------------------------------|-------------------------|----------------||
||-----------------------------------------------|-------------------------|----------------||
||-----------------------------------------------|-778...-------111112...--|----------------||
||-2--7---5---4---7---5---4---5-4-5-2--7---5---4-|-556...-------9-9-10...--|-7-6-5-4-5-4-2--||
||-0--5-003-002-005-003-002-003-2-3-0--5-003-002-|--------0-000------------|-5-4-3-2-3-2-0--||
        ..  ..  ..  ..  ..  ..           ..  ..           . ...              . . . . . .


2x Riff 3  [1.30-1.43]


1x Riff 4b [1.43-2.10]
                                                 |1                        |2  
||-----------------------------------------------|-------------------------|---------------------------||
||-----------------------------------------------|-------------------------|---------------------------||
||-----------------------------------------------|-------------------------|---------------------------||
||-----------------------------------------------|-778...-------111112...--|-778....-------887....888--||
||-2--7---5---4---7---5---4---5-4-5-2--7---5---4-|-556...-------9-9-10...--|-556....-------665....666--||
||-0--5-003-002-005-003-002-003-2-3-0--5-003-002-|--------0-000------------|---------0-000-------------||
        ..  ..  ..  ..  ..  ..           ..   ..          . ...                      . ...

                                                 |3                        |4
||-----------------------------------------------|-------------------------|----------------||
||-----------------------------------------------|-------------------------|----------------||
||-----------------------------------------------|-------------------------|----------------||
||-----------------------------------------------|-778...-------111112...--|----------------||
||-2--7---5---4---7---5---4---5-4-5-2--7---5---4-|-556...-------9-9-10...--|-7-6-5-4-5-4-2--||
||-0--5-003-002-005-003-002-003-2-3-0--5-003-002-|--------0-000------------|-5-4-3-2-3-2-0--||
        ..  ..  ..  ..  ..  ..           ..  ..           . ...              . . . . . .   


1x Riff 1c [2.10-2.16]


||------------------------------------------------------------------------------||
||------------------------------------------------------------------------------||
||------------------------------------------------------------------------------||
||---------------------------------------------3\2------------------------------||
||-7-6-5-4-5-4---------------------------------1\0------------------------------||
||-5-4-3-2-3-2-000-000-000-000-000-000-000-000-----000-000-000->>>>>>>>>>>>>>>--||
   . . . . . .


2x Riff 1b [2.16-2.25]


1x Riff 2a [2.25-2.28]


2x Riff 1b [2.28-2.38]


2x Riff 2b [2.38-2.48]


1x Riff 5  [2.48-3.05]

  [..]not the first time
||-------------------------------------------------------------------------||
||-------------------------------------------------------------------------||
||-------------------------------------------------------------------------||
||-----9-9-----9-9-----9-9-----9-9------14-1414-12...------12-1212-10..----||
||-222-7-7-222-7-7-222-7-7-222-7-7------12-1212-10...------10-1010--8..-7--||
||-000 ----000-----000-----000-----0000---------------0000-----------------||
                                   ....               ....              ^ 
||-------------------------------------------------------------------------||
||-------------------------------------------------------------------------||
||-------------------------------------------------------------------------||
||-----9-9-----9-9-----9-9-----9-9------14-1414-12...------12-1212-10..-9--||
||-222-7-7-222-7-7-222-7-7-222-7-7------12-1212-10...------10-1010--8..----||
||-000 ----000-----000-----000-----0000---------------0000-----------------||
                                   ....               ....              ^  


4x Riff 6  [3.05-3.19]
                                                                            4x
||--------------------------------------|-----------------------------------||
||--------------------------------------|-----------------------------------||
||--------------------------------------|----------------------------------o||
||-----9-9-----9-9-----9-9-----9-9------|-14-1414-12...------17-1717-15..--o||
||-222-7-7-222-7-7-222-7-7-222-7-7------|-12-1212-10...------15-1515-13..---||
||-000 ----000-----000-----000-----0000-|---------------0000----------------||
                                   ....               ....                                                                                           


4x Riff 7  [3.19-3.45]

||---------------------------------------------------------------------------------------------||
||---------------------------------------------------------------------------------------------||
||---------------------------------------------------------------------------------------------||
||----------------------------------------------------------------------------------------5-4--||
||-------------------------------------3-----8-7-----------------------------------------------||
||-3-333-6-3-3-3-333-6-3-3-3-333-6-3-3---333-6-5-3-333-6-3-3-3-333-6-3-3-2-222-2-222-2-222-----||
   . ...   . . . ...   . . . ...   . .   ...     . ...   . . ... .   . . . ... . ... . ...


1x Riff 5  [3.45-3.59]


1x Riff 6  [3.59-4.16]


4x Riff 7  [4.16-4.43] 


4x Riff 3  [4.43-5.10]Solo!


1x Riff 4b [5.10-5.37]


||----------------||
||----------------||
||----------------||
||----------------||
||-7-6-5-4-5-4-2--||
||-5-4-3-2-3-2-0--||
   . . . . . .   

END!





Comments


Popular Immortal tabs & chords
Blashyrk Bass Tabs
Beyond The North Waves Chords
A Perfect Vision Of The Rising Northland Tabs
Damned In Black Tabs
One By One Tabs
Solarfall Tabs
Sons Of Northern Darkness 2 Tabs
Tyrants Tabs
Where Dark And Light Don Differ Tabs
Beyond The North Waves Ukulele


Song lyrics



↑ Back to top | Tablatures and chords are parodies/interpretations of the original songs. You may use it for private study, scholarship, research or language learning purposes only
© 2014 AZChords.com Contact us | Privacy policy | DMCA | Add/correct tabs | Request tabs | Top 50 tabs