» » »

Grim And Frostbitten Kingdoms Tabs (ver.1)

Artists:  A B C D E F G H I J K L M N O P Q R S T U V W X Y Z # 

Grim And Frostbitten Kingdoms Tabs (ver.1)

Immortal
Rating:
2/5 (1 vote)

Hard to play? Try these video lessons and learn fast.
                IMMORTAL

GRIM AND FROSTBITTEN KINGDOMS
BATTLES IN THE NORTH

(ATATATH)=(EVILOUIJAGOTH)=(ADAM BRUNN)

I first heard this on MONSTERS OF METAL VOL. II, and as soon as i heard it i bought this album
This song is great so i decided to figure it out, however, i havnt finished the solo so 
anyone
can, could you help me with it?

DEMONAZ: GUITAR
E-A-D-G-B-E

LEGEND:
///:   TREMOLO PICK


RIFF A
|---------------------------------------------------------------|
|---------------------------------------------------------------|
|---------------------------------------------------------------|
|---------------------------------------------------------------|
|-------7-7-7-8-8-8-----------------7-7-7-8-8-8-8-8-8-----------|
|-0-0-0-------------7-7-6-6---0-0-0-----------------------------|

RIFF B
|---------------------------------------------------------------|
|---------------------------------------------------------------|
|---------------------------------------------------------------|
|-------5-5-5-6-6-6---------------------------------------------|
|-------7-7-7-8-8-8-------7-7-7-8-8-8-7-7-7---------------------|
|-0-0-0-------------0-0-0---------------------------------------|

RIFF B (VERSE)

RIFF C, INTERLUDE
|---------------------------------------------------------------|
|---------------------------------------------------------------|
|---------------------------------------------------------------|
|---------------------------------------------------------------|
|-5-5-5-5-5-5-5-0-0-7-7-7-7-7-7-7-7-----------------------------|
|---------------------------------------------------------------|

RIFF D, VERSE
|---------------------------------------------------------------|
|---------------------------------------------------------------|
|---------------------------------------------------------------|
|-7-7-7-7-6-6-6-6--6-6-6-6-5-5-5-5------------------------------|
|-5-5-5-5-4-4-4-4--4-4-4-4-3-3-3-3------------------------------|
|---------------------------------------------------------------|

E5 CHORD RINGOUT

RIFF B, VERSE

RIFF C, INTERLUDE

RIFF D, VERSE

RIFF A

SOLO (Unfinished)...
|-12-13-12-10------------------12-13-15-13-12-------------------|
|-//-//-//-//-11-10-10-9-10-11-//-//-//-//-//-------------------|
|-------------//-//-//-/-//-//----------------------------------|
|---------------------------------------------------------------|
|---------------------------------------------------------------|
|---------------------------------------------------------------|

Sorry about the unfinished solo, but its very difficult, plus, im a little stressed with 
work,
so give me a while and it'll be done.
If i have time, after ive posted this tab i'll carry on with the solo and the other side 
the solo on
"DEVIL MAY CARE" By SUSPERIA.
                                       ATATATH.
            
Hard to play? Try these video lessons and learn fast. | Correct




comments powered by Disqus
↑ Back to top | Tablatures and chords are parodies/interpretations of the original songs. You may use it for private study, scholarship, research or language learning purposes only