>
 >
One-A 1

One-A 1 Guitar Tabs

Illscarlett - One-A 1 chords, tabs, tablatures, lyrics

Guitar lessons | Add/correct | Request | Top 50 tabs Artists:  A B C D E F G H I J K L M N O P Q R S T U V W X Y Z 0-9

One-A 1 Guitar Tabs – Illscarlett

CD, Sheet music, Poster

Do you like One-A 1? Share with your friends now
Bass TabsChordsChords v2TabsTabs v2

Album : EPdemic 
Label: Infect the Masses/Red Ink 

Standard Tuning    
b  = bend 
h  = hammer on
p  = pull off
/  = slide 
\  = slide down  
/\ = upstroke 
  
  Intro 
   Riff 1
E|-5-5-5-5-5-5--4-4-4-4-4-4--3-3-3-3-3-3-2--|
B|-5-5-5-5-5-5--4-4-4-4-4-4--5-5-5-5-5-5-2~-|
G|-5-5-5-5-5-5--5-5-5-5-5-5--5-5-5-5-5-5-2~-|
D|-7-7-7-7-7-7--6-6-6-6-6-6--5-5-5-5-5-5-4~-|
A|-7-7-7-7-7-7--6-6-6-6-6-6--3-3-3-3-3-3-4~-|
E|-5-5-5-5-5-5--4-4-4-4-4-4--3-3-3-3-3-3-2~-|

  Riff 2 Verse  ska upstroke 
    C maj                /\     A min              D min
|-x-8--x--8--x--8--x--8--8-\5---5-x-5-x-5-x-5-5----5x-5-x-5---5-5-5----|
|-x-8--x--8--x--8--x--8--8-\5---5-x-5-x-5-x-5-5h6--6x-6-x-6---6-6-6----|
|-x-9--x--9--x--9--x--9--9-\5---5-x-5-x-5-x-5-5----7x-7-x-7---7-7-7----|
|---10---10----10----10-10\7---7---7---7---7-7----7--7---7---7-7-7----|
|-----------------------------------------------------------------------|
|-----------------------------------------------------------------------|
                 E min                2nd ending         
|-5---5---5--5-5/7---7-x-7-x-7-x-|   |-8~---------------|
|-6---6---6--6-6/8---8-x-8-x-8-x-|   |-8~--9b-----------|
|-7---7---7--7-7/9---9-x-9-x-9-x-|   |--------12p10-9-7-|
|-7---7---7--7-7/9---9---9---9---|x2 |------------------|
|--------------------------------|   |------------------|
|--------------------------------|   |------------------|

Pre-Chorus:
  Riff 3 Guitar 1 
e-------------------------------------------------|
B--------5----------5----------5----------5-------|
G-----5----------5----------5----------5----------|
D--7----------6----------5----------4-------------|
A-------------------------------------------------|
E-------------------------------------------------|

e-------------7----------------7-----------------7---------|
B--------5-------5--------5-------5---------5-------5---5~-|
G-----5----------------5-----------------5--------------5~-|
D--7----------------6-----------------5-----------------4~-|
A----------------------------------------------------------|
E----------------------------------------------------------|

 Strum each chord x8
 Riff 3 Guitar 2
|--------------------|
|--------------------|
|--------------------|
|---7---6---5---4----| x 2
|---7---6---5---4----|
|---5---4---3---2----|


Chorus - Repeat Riff 2 with 3rd ending 
|--8--7--0--0--|
|--8--8--5--8--|
|--9--9--6--9--|
|--------7--10-|
|--------------|
|--------------|

 Chorus Guitar 2 - Wawa 
|-----------------------------------------|
|-----------------------------------------|
|-----------------------------------------|
|-----------7-----------------------------|
|--7----10---- 7----8--7--8---------------|
|----------------------------------1---3--|

|--------------------------------------------|---------------|
|--------------------------------------------|---------------|
|--------------------------------------------|---------------| 
|--------------------------------------------|--10--9--------| 
|--7----8--7--7----8--7-10\-8-------12---14--|---------7-10--| 
|--------------------------------------------|---------------| 
 
 Verse Repeat riff 2 
 Pre-Chorus
 Chorus 

Bridge 

 Guitar 1 - Tremolo Wawa 
|------|
|------|
|------|
|--10--|
|------|
|------|

Guitar 2 
|-5-5-5-5-5-5--4-4-4-4-4-4--3-3-3-3-3-3--2-2-2-2-2-2-|
|-5-5-5-5-5-5--4-4-4-4-4-4--5-5-5-5-5-5--2-2-2-2-2-2-|
|-5-5-5-5-5-5--5-5-5-5-5-5--5-5-5-5-5-5--2-2-2-2-2-2-|
|-7-7-7-7-7-7--6-6-6-6-6-6--5-5-5-5-5-5--4-4-4-4-4-4-| x2
|-7-7-7-7-7-7--6-6-6-6-6-6--3-3-3-3-3-3--4-4-4-4-4-4-|
|-5-5-5-5-5-5--4-4-4-4-4-4--3-3-3-3-3-3--2-2-2-2-2-2-|

 Solo 
|--10b---10h12p108h10p8----------------------------------------------------|
|----------------------8h10p8----------8\----------------------------------|
|----------------------------9h10p9----9\---9-10-8-10-109---10--10---------|
|----------------------------------10-10\-10----10-------10-10----12\10--7-|
|--------------------------------------------------------------------------|
|--------------------------------------------------------------------------|



|--------------------------------------------------------------10----------|
|-----------------------------------------------------10-12-13----13-12-10~|
|---------------------------------------------9-10-12----------------------|
|--7--------------------------7-9-10--9-10-12------------------------------|
|---10\8--------2-3-5--7-9-10----------------------------------------------|
|---------1-3-5------------------------------------------------------------|

  Last Chorus - Both 
|------------------------------------|
|------------------------------------|
|-----------5--------7---------------| x4
|--7--------5--------7--------3----5-|
|--7--------3--------5--------3----5-|
|--5--------------------------1----3-|


Guitar 1 - during last time above progression is played
|-------------------------------------------------|
|---10~----10--8--5--8--10~----10--8--5--8--10~---|
|-------------------------------------------------|
|-------------------------------------------------|
|-------------------------------------------------|
|-------------------------------------------------|

|---------------8-----7----|
|---10--8--5--8------------|
|------------------5-------|
D------------------------7-|
A--------------------------|
E--------------------------|

  guitar 1 end
e--------------------|
B--------------------|
G--------------------|
D--7777-7777-7777777-|
A--7777-7777-7777777-|
E--5555-5555-5555555-|

  guitar 2 end

e--12-0-8----7-0-5-|
B------------------|
G------------------|
D---------10-------|
A------------------|
E------------------|





Comments


Popular Illscarlett tabs & chords
Babylon Song Bass Tabs
N.T.F Bass Tabs
Rally Bass Tabs
Life Of A Soldier Chords
Nothing Special Chords
Nothing Special 2 Chords
Life Of A Soldier Tabs
Ntf Tabs
Rally Tabs
My Bed Ukulele


Song lyrics



↑ Back to top | Tablatures and chords are parodies/interpretations of the original songs. You may use it for private study, scholarship, research or language learning purposes only
© 2014 AZChords.com Contact us | Privacy policy | DMCA | Add/correct tabs | Request tabs | Top 50 tabs