>
 >
One-A

One-A Guitar Tabs

Illscarlett - One-A chords, tabs, tablatures, lyrics

Guitar lessons | Add/correct | Request | Top 50 tabs Artists:  A B C D E F G H I J K L M N O P Q R S T U V W X Y Z 0-9

One-A Guitar Tabs – Illscarlett

CD, Sheet music, Poster

Do you like One-A? Share with your friends now
Bass TabsChordsChords v2TabsTabs v2

h = hammer on
p = pull off
~ = let ring
\ = slide down

STANDARD TUNING

Intro:

e-5-5-5-5-5-5-4-4-4-4-4-4-3-3-3-3-3-3----|
B-5-5-5-5-5-5-4-4-4-4-4-4-5-5-5-5-5-5-5~-|
G-5-5-5-5-5-5-5-5-5-5-5-5-5-5-5-5-5-5-5~-|
D-7-7-7-7-7-7-6-6-6-6-6-6-5-5-5-5-5-5-4~-|
A-7-7-7-7-7-7-6-6-6-6-6-6-3-3-3-3-3-3----|
E-5-5-5-5-5-5-4-4-4-4-4-4-3-3-3-3-3-3-2~-|

Verse:  if this doesnt float ur boat just play whatever u want within the chords

	C maj	   A min	 D min	        F maj		    G maj
e-----8--8--8-8----5--5--5-5----5--5--5--5---------------------------------------|
B-x5--5--5--5-5----5--5--5-5-6--6--6--6--6-----13--13--13--13--12-12--12--12--12-|
G-x5--5--5--5-5-5--5--5--5-5-7--7--7--7--7--10-10--10--10--10--12-12--12--12--12-|
D-x5--5--5--5-5-7--7--7--7-7-7--7--7--7--7--10-10--10--10--10--12-12--12--12--12-|
A---------------7--7--7--7-7-----------------------------------------------------|
E--------------------------------------------------------------------------------|

	C maj	   A min 	 D min 	   F    G
e-----8--8--8-8----5--5--5-5----5--5--5--5--------|
B--5--5--5--5-5----5--5--5-5-6--6--6--6--6--------|
G--5--5--5--5-5-5--5--5--5-5-7--7--7--7--7--------|
D--5--5--5--5-5-7--7--7--7-7-7--7--7--7--7-3----5-|
A---------------7--7--7--7-7---------------3----5-|
E------------------------------------------1----3-|

Pre-Chorus:
e-------------------------------------------------|
B--------5----------5----------5----------5-------|
G-----5----------5----------5----------5----------|
D--7----------6----------5----------4-------------|
A-------------------------------------------------|
E-------------------------------------------------|

e-------------7----------------7-----------------7---------|
B--------5-------5--------5-------5---------5-------5---5~-|
G-----5----------------5-----------------5--------------5~-|
D--7----------------6-----------------5-----------------4~-|
A----------------------------------------------------------|
E----------------------------------------------------------|

Then the Chorus is the same as the verse only it ends by strumming C four times

e-----
B--5--
G--5--
D--5--
A--3--
E-----

and the second guitar turns on the wah pedal and plays something kinda like this
e-----------------------------------------|
B-----------------------------------------|
G--9----12-10--9---10--9-10---------------|
D----------------------------------3---5--|
A--7----10--8--7----8--7--8---------------|
E----------------------------------1---3--|

e--------------------------------------------|---------------|
B--------------------------------------------|---------------|
G--9---10--9--9---10--9-12\10-------14---16--|---------------| this last part
D--------------------------------------------|--10--9--------| is where the
A--7----8--7--7----8--7-10\-8-------12---14--|---------7-10--| other guitar
E--------------------------------------------|---------------| strums C 4x

After the chorus it goes through the verse and pre-chorus again
then it plays the chorus minus the ending part (strumming C four times)and instead it 
right into the bridge which is this

Bridge:	guitar 1
e------------------------------------------------------------------|
B------------------------------------------------------------------|
G------------------------------------------------------------------|
D--7--7--7-7--7--7-6--6--6-6--6--6-5--5--5-5--5--5-4--4--4-4--4--4-|
A--7--7--7-7--7--7-6--6--6-6--6--6-5--5--5-5--5--5-4--4--4-4--4--4-|
E--5--5--5-5--5--5-4--4--4-4--4--4-3--3--3-3--3--3-2--2--2-2--2--2-|

e-----------------------------------------------------|
B-----------------------------------------------------|
G-----------------------------------------------------|
D--7--7--7-7--7--7-6--6--6-6--6--6-5--5--5-5--5--5-4~-|
A--7--7--7-7--7--7-6--6--6-6--6--6-5--5--5-5--5--5-4~-|
E--5--5--5-5--5--5-4--4--4-4--4--4-3--3--3-3--3--3-2~-|

guitar 2 - for the first half of the bridge he's just
	   hitting this note with the delay pedal or
	   sum other weird effect
e------|
B------|
G------|
D--10--|
A------|
E------|
	then he plays this part again
e-5-5-5-5-5-5-4-4-4-4-4-4-3-3-3-3-3-3----|
B-5-5-5-5-5-5-4-4-4-4-4-4-5-5-5-5-5-5----|
G-5-5-5-5-5-5-5-5-5-5-5-5-5-5-5-5-5-5-5~-|
D-7-7-7-7-7-7-6-6-6-6-6-6-5-5-5-5-5-5-4~-|
A-7-7-7-7-7-7-6-6-6-6-6-6-3-3-3-3-3-3----|
E-5-5-5-5-5-5-4-4-4-4-4-4-3-3-3-3-3-3-2~-|

then the Solo: dont have it all figured out but it goes something like this

e--10b---10h12p108h10p8----------------------------------------------------|
B----------------------8h10p8----------8\----------------------------------|
G----------------------------9h10p9----9\---9-10-8-10-109---10--10---------|
D----------------------------------10-10\-10----10-------10-10----12\10--7-|
A--------------------------------------------------------------------------|
E--------------------------------------------------------------------------|

e---------                -------8h10p88h10p8\5-----------------|
B---------                -8h10p8-------------------------------|
G--------- and i cant figure out the    ------------------------|
D--7------ last part here except that    -----------------------|
A---10\8-- it ends with this        ----------------------------|
E---------                --------------------------------------|

  Last Chorus
e------------------------------------|
B------------------------------------|
G-----------5--------7---------------| x4
D--7--------5--------7--------3----5-|
A--7--------3--------5--------3----5-|
E--5--------------------------1----3-|


On the last time the above progression is played one guitar does this
e-------------------------------------------------|
B---10~----10--8--5--8--10~----10--8--5--8--10~---|
G-------------------------------------------------|
D-------------------------------------------------|
A-------------------------------------------------|
E-------------------------------------------------|

e---------------8-----7----|
B---10--8--5--8------------|
G------------------5-------|
D------------------------7-|
A--------------------------|
E--------------------------|

  guitar 1 ends with
e--------------------|
B--------------------|
G--------------------|
D--7777-7777-7777777-|
A--7777-7777-7777777-|
E--5555-5555-5555555-|

  guitar 2 ends with

e--12-0-8----7-0-5-|
B------------------|
G------------------|
D---------10-------|
A------------------|
E------------------|


There u have it. If u can figure out the entire solo correctly
u damn well better post it.





Comments


Popular Illscarlett tabs & chords
Nothing Special 1 Chords
Paradise Burning Chords
Clearer Now Tabs
Danse Macabre Tabs
N.T.F 1 Tabs
Nothing Special 1 Tabs
Ntf Tabs
Ntf 2 Tabs
My Bed Ukulele
Sorry Ukulele


Song lyrics



↑ Back to top | Tablatures and chords are parodies/interpretations of the original songs. You may use it for private study, scholarship, research or language learning purposes only
© 2014 AZChords.com Contact us | Privacy policy | DMCA | Add/correct tabs | Request tabs | Top 50 tabs