» » »

Illscarlett, One-A Bass tabs (ver.1)

Artists:  A B C D E F G H I J K L M N O P Q R S T U V W X Y Z # 

One-A Bass tabs (ver.1)

Illscarlett Tabs
Rating:
0/5 (0 votes)
One-A lessons Tabs too difficult? Try these video lessons and learn fast
                -------------------------------------------------------------------------------
-------------------------------------------------------------------------------



Tuning: EADG

Intro (1x)
G|---------------------------------------------------------------------------|
D|---------------------------------------------------------------------------|
A|---------------------------------------------------------------------------|
E|-5-5-5-5-5-5-4-4-4-4-4-4-3-3-3-3-3-3-2~------------------------------------|

Verse (2x)
G|------------------------------------------------------------------------------|
D|-----2-5-------2-5--------2--------2---------------------3-3---3-5-5-5-5------|
A|-3-3------3-33----------3--------3---5-5----3h5-5-5----5----3h5---------------|
E|--------------------5-5-----5-55---------3h5-------3h5------------------------|

Pre-Chorus (1x)
G|---------------------------------------------------------------------------|
D|---------------------------------------------------------------------------|
A|-------------7-------------------------------------------------------------|
E|-5-5-5-5-5-5---5-4-4-4-4-4-4-4-4-3-3-3-3-3-3-3-3-2-2-2-2-2-2-2-2-----------|

G|---------------------------------------------------------------------------|
D|---------------------------------------------------------------------------|
A|-------------------------------------3-3-3-3-3-3-3-3-----------------------|
E|-5-5-5-5-5-5-5-5-5-4-4-4-4-4-4-4-4-4-----------------2~--------------------|

Chorus (1x)
G|--------------------------------------------------------------------------------|
D|-----2-5-------2-5--------2--------2---------------------3-3---3-5-5-5-2--------|
A|-3-3------3-33----------3--------3---5-5----3h5-5-5----5----3h5----------5-3----|
E|--------------------5-5-----5-55---------3h5-------3h5--------------------------|

G|------------------------------------------------------------------------------|
D|-----2-5-------2-5--------2--------2---------------------3-3---3-5-5-5-5------|
A|-3-3------3-33----------3--------3---5-5----3h5-5-5----5----3h5---------------|
E|--------------------5-5-----5-55---------3h5-------3h5------------------------|

Verse (2x)
G|------------------------------------------------------------------------------|
D|-----2-5-------2-5--------2--------2---------------------3-3---3-5-5-5-5------|
A|-3-3------3-33----------3--------3---5-5----3h5-5-5----5----3h5---------------|
E|--------------------5-5-----5-55---------3h5-------3h5------------------------|

Pre-Chorus (1x)
G|---------------------------------------------------------------------------|
D|---------------------------------------------------------------------------|
A|-------------7-------------------------------------------------------------|
E|-5-5-5-5-5-5---5-4-4-4-4-4-4-4-4-3-3-3-3-3-3-3-3-2-2-2-2-2-2-2-2-----------|

G|---------------------------------------------------------------------------|
D|---------------------------------------------------------------------------|
A|-------------------------------------3-3-3-3-3-3-3-3-----------------------|
E|-5-5-5-5-5-5-5-5-5-4-4-4-4-4-4-4-4-4-----------------2~--------------------|

Chorus (x1)
G|--------------------------------------------------------------------------------|
D|-----2-5-------2-5--------2--------2---------------------3-3---3-5-5-5-2--------|
A|-3-3------3-33----------3--------3---5-5----3h5-5-5----5----3h5----------5-3----|
E|--------------------5-5-----5-55---------3h5-------3h5--------------------------|

G|------------------------------------------------------------------------------|
D|-----2-5-------2-5--------2--------2---------------------3-3---3-5-5-5-5------|
A|-3-3------3-33----------3--------3---5-5----3h5-5-5----5----3h5---------------|
E|--------------------5-5-----5-55---------3h5-------3h5------------------------|

Pre-Outro (1x)
G|---------------------------------------------------------------------------|
D|---------------------------------------------------------------------------|
A|---------------------------------------------------------------------------|
E|-5-5-5-5-5-5-5-5-4-4-4-4-4-4-4-4-3-3-3-3-3-3-3-3-2-2-2-2-2-2-2-2-----------|

G|---------------------------------------------------------------------------|
D|---------------------------------------------------------------------------|
A|---------------------------------------------------------------------------|
E|-5-5-5-5-5-5-4-4-4-4-4-4-3-3-3-3-3-3-2~------------------------------------|

G|---------------------------------------------------------------------------|
D|-----2-5-------2-5--------2--------2---------------------333333555555------|
A|-3-3------3-33----------3--------3---5-5----3h5-5-5----5-------------------|
E|--------------------5-5-----5-55---------3h5-------3h5---------------------|

Outro (4x)
G|---------------------------------------------------------------------------|
D|-------------------------------------------------3-3-3-3-5-5-5-5-----------|
A|-----------------3-3-3-3-3-3-3-3-5-5-5-5-5-5-5-5---------------------------|
E|-5-5-5-5-5-5-5-5-----------------------------------------------------------|

Ending Note - 55555 55555 5555555555


| /  slide up
| \  slide down
| h  hammer-on
| p  pull-off
| ~  vibrato
| +  harmonic
| x  Mute note
===============================================================================
            

comments powered by Disqus
↑ Back to top | Illscarlett Bass for One-A. Lyrics for acoustic guitar and electric guitar. Tablatures and chords are parodies/interpretations of the original songs. You may use it for private study, scholarship, research or language learning purposes only