» » »

Ill Nino, When It Cuts Tabs (ver.3)

Artists:  A B C D E F G H I J K L M N O P Q R S T U V W X Y Z # 

When It Cuts Tabs (ver.3)

Ill Nino Tabs
 Rating:
4/5 (4 votes)
When It Cuts lessons Tabs too difficult? Try these video lessons and learn fast
                Band: Ill Nino

Tuning - Drop C

This is a great song. The other tab for this song is off a little so here is what I 
this tab is 99.9% correct. Enjoy

Key:
pm.. - Palm mute
~~   - hold note
:    - staccato(quick, doesn't ring)

intro/ riff 1-
part 1-
|---------------------------------|
|---------------------------------|
|---------------------------------|
|--2-0-2--5-5-5-5-5--2-0--4-4-4-4-|  x3
|--2-0-2-------------2-0----------|
|--2-0-2-------------2-0----------|
pm . .               .

part 2-
|----------------------------------|
|----------------------------------|
|----------------------------------|
|--0-0-0--5-5-5-5-5--0-0--4-5-7-7--|
|--0-0-0-------------0-0-----------|
|--0-0-0-------------0-0-----------|
pm . .               .

Verse-
|--------------------------------------|
|--------------------------------------|
|--------------------------------------|
|-----------5-5-5-5-5---------4-4-4-4--|  x3
|--------------------------------------|
|--2-0-2-2-------------2-0-0-----------|
pm . . . .  . . . . .  . . .  . . . .

|--------------------------------------|
|--------------------------------------|
|--------------------------------------|
|-----------5-5-5-5-5---------4-5-7-7--|
|--------------------------------------|
|--0-0-0-0-------------0-0-0-----------|
pm . . . .  . . . . .  . . .

play riff 1 part 1 again then
Pre-chorus chord
|---------|
|---------|
|---------|
|--0:-----|
|--0:-----|
|--0:-----|

Chorus-
|----------------------------------|-----------|
|----------------------------------|-----------|
|----------------------------------|-----------|
|----------------------------------|--5~~-0~~--|  x4
|----------------------------------|--5~~-0~~--|
|--0-2-2--0-2-2--0-2-2--0-2-0-2-0--|--5~~-0~~--|

play all of riff 1 x1

play all of verse  x1

play riff 1 Part 1

play Pre-chorus chord

play all of Chorus x1

Breakdown riff-
|------------------|
|------------------|
|------------------|
|--2~~--------2~~--|
|--2~~---2-2--2~~--|
|--2~~---2-2--2~~--|
pm       . .

Bridge-
section1        section2
|---------------|------------------|
|---------------|------------------|
|---------------|------------------|
|--2-2--0-2-0-2-|-3-3-3-3-3-3-3-3--|  whole thing x3
|--2-2--0-2-0-2-|-3-3-3-3-3-3-3-3--|
|--2-2--0-2-0-2-|-3-3-3-3-3-3-3-3--|
pm                . . . . . . . .

section1 x1
then
|---------|
|---------|
|---------|
|--5~-0~--|
|--5~-0~--|
|--5~-0~--|

Lead riff under bridge-
|----------------------------------------------|
|--12--12-12-12--12-12~--10--10-10-10--10-10~--|
|----------------------------------------------| if you listen close you hear
|----------------------------------------------| the picking pattern
|----------------------------------------------|
|----------------------------------------------|

|---------------------------------------|
|---------------------------------------|
|--12--12-12-12--12-12~--9--9-9-9--9-9--|
|---------------------------------------|
|---------------------------------------|
|---------------------------------------|

whole bridge x 3 then
Pre-chorus chord

play all of Chorus x1

play riff 1 part 1

Outro-
|--------------|
|--------------|
|--------------|
|--0:-0:-0~~~--| fade out ot end of song
|--0:-0:-0~~~--|
|--0:-0:-0~~~--|


well thats it. listen to the song and it is simple to figure out
            
Submit corrections

comments powered by Disqus
↑ Back to top | Ill Nino Tabs for When It Cuts. Lyrics for acoustic guitar and electric guitar. Tablatures and chords are parodies/interpretations of the original songs. You may use it for private study, scholarship, research or language learning purposes only