» » »

Ill Nino, When It Cuts Tabs (ver.1)

Artists:  A B C D E F G H I J K L M N O P Q R S T U V W X Y Z # 

When It Cuts Tabs (ver.1)

Ill Nino Tabs
 Rating:
4/5 (4 votes)
When It Cuts lessons Tabs too difficult? Try these video lessons and learn fast
                When it Cuts-Ill Nino

did a little changin up after listenin to it more...this is now 100% correct

CGCFAD tuning

Intro/Verse/pre-chorus(just palm mute everything for the verse)
[Also played in other parts of the song listen for it]

(samples and bass)

D|--------------------------
A|--------------------------
F|--------------------------(x3)
C|-2-0--2-55555-2--0-4444---
G|-2-0--2-------2--0--------
C|-2-0--2-------2--0--------
P.M...          .

D|--------------------------
A|--------------------------
F|--------------------------(x1 not in pre chorus)
C|-0-0--0-44444-0--0-5555---
G|-0-0--0-------0--0--------
C|-0-0--0-------0--0--------
P.M...          .  

Chorus
D|---------------------
A|---------------------(dont know about this part just yet)
F|---------------------
C|---------------------
G|---------------------
C|-0202-02-020---------

D|----------------
A|----------------
F|----------------
C|-7~---2~--------
G|-5~---0~--------
C|-5~---0~--------

Bridge
D|--------------------|---------
A|--------------------|---------
F|--------------------|---------
C|-20202-33333333-----|-7-2-----
G|-20202-33333333-----|-5-0-----
C|-20202-33333333-----|-5-0-----
P.M.     ........
            
Submit corrections

comments powered by Disqus
↑ Back to top | Ill Nino Tabs for When It Cuts. Lyrics for acoustic guitar and electric guitar. Tablatures and chords are parodies/interpretations of the original songs. You may use it for private study, scholarship, research or language learning purposes only