» » »

Ill Nino, When It Cuts Tabs (ver.2)

Artists:  A B C D E F G H I J K L M N O P Q R S T U V W X Y Z # 

When It Cuts Tabs (ver.2)

Ill Nino Tabs
Rating:
0/5 (0 votes)
When It Cuts lessons Tabs too difficult? Try these video lessons and learn fast
                
TUNED: drop C   (C,G,C,F,A,D)


----------------------------
INTRO

|---------------|-------------|---------------|-------------|
|---------------|-------------|---------------|-------------|
|---------------|-------------|---------------|-------------|
|-2-0-2-5-5-5-5-|-2-0-4-4-4-4-|-2-0-2-5-5-5-5-|-2-0-4-4-4-4-|
|-2-0-2---------|-2-0---------|-2-0-2---------|-2-0---------|
|-2-0-2---------|-2-0---------|-2-0-2---------|-2-0---------|

|---------------|-------------|---------------|-------------|
|---------------|-------------|---------------|-------------|
|---------------|-------------|---------------|-------------|
|-2-0-2-5-5-5-5-|-2-0-4-4-4-4-|-0-0-0-4-4-4-4-|-0-0-5-5-5-5-|
|-2-0-2---------|-2-0---------|-0-0-0---------|-0-0---------|
|-2-0-2---------|-2-0---------|-0-0-0---------|-0-0---------|



VERSE 1

|---------------|-------------|---------------|-------------|
|---------------|-------------|---------------|-------------|
|---------------|-------------|---------------|-------------|
|-------5-5-5-5-|-----4-4-4-4-|-------5-5-5-5-|-----4-4-4-4-|
|---------------|-------------|---------------|-------------|
|-2-0-2---------|-2-0---------|-2-0-2---------|-2-0---------|

|---------------|-------------|---------------|-------------|
|---------------|-------------|---------------|-------------|
|---------------|-------------|---------------|-------------|
|-------5-5-5-5-|-----4-4-4-4-|-------4-4-4-4-|-----5-5-5-5-|
|---------------|-------------|---------------|-------------|
|-2-0-2---------|-2-0---------|-0-0-0---------|-0-0---------|

|---------------|-------------|---------------|-------------|
|---------------|-------------|---------------|-------------|
|---------------|-------------|---------------|-------------|
|-2-0-2-5-5-5-5-|-2-0-4-4-4-4-|-2-0-2-5-5-5-5-|-2-0-4-5-4-5-|
|-2-0-2---------|-2-0---------|-2-0-2---------|-2-0---------|
|-2-0-2---------|-2-0---------|-2-0-2---------|-2-0---------|

|---------------|-------------|---|
|---------------|-------------|---|
|---------------|-------------|---|
|-2-0-2-5-5-5-5-|-2-0-4-4-4-4-|-2-|
|-2-0-2---------|-2-0---------|-2-|
|-2-0-2---------|-2-0---------|-2-|



CHORUS 1

|--------------------------------|-----|-----|
|--------------------------------|-----|-----|
|--------------------------------|-----|-----|
|--------------------------------|-5---|-0---|
|--------------------------------|-5---|-0---|
|-0-2-2-0-2--0-2--0-2-2-0-2--0-2-|-5---|-0---|  4x

|---------------|-------------|---------------|-------------|
|---------------|-------------|---------------|-------------|
|---------------|-------------|---------------|-------------|
|-2-0-2-5-5-5-5-|-2-0-4-4-4-4-|-2-0-2-5-5-5-5-|-2-0-4-4-4-4-|
|-2-0-2---------|-2-0---------|-2-0-2---------|-2-0---------|
|-2-0-2---------|-2-0---------|-2-0-2---------|-2-0---------|

|---------------|-------------|---------------|-------------|
|---------------|-------------|---------------|-------------|
|---------------|-------------|---------------|-------------|
|-2-0-2-5-5-5-5-|-2-0-4-4-4-4-|-0-0-0-4-4-4-4-|-0-0-5-5-5-5-|
|-2-0-2---------|-2-0---------|-0-0-0---------|-0-0---------|
|-2-0-2---------|-2-0---------|-0-0-0---------|-0-0---------|



VERSE 2

|---------------|---------|---------------|---------|
|---------------|---------|---------------|---------|
|---------------|---------|---------------|---------|
|-------5-5-5-5-|-----5-4-|-------5-5-5-5-|-----5-4-|
|---------------|---------|---------------|---------|
|-2-0-2---------|-2-0-----|-2-0-2---------|-2-0-----|

|---------------|---------|---------------|-------------|
|---------------|---------|---------------|-------------|
|---------------|---------|---------------|-------------|
|-------5-5-5-5-|-----5-4-|-------4-4-4-4-|-----5-5-5-5-|
|---------------|---------|---------------|-------------|
|-2-0-2---------|-2-0-----|-0-0-0---------|-0-0---------|

|---------------|-------------|---------------|-------------|
|---------------|-------------|---------------|-------------|
|---------------|-------------|---------------|-------------|
|-2-0-2-5-5-5-5-|-2-0-4-4-4-4-|-2-0-2-5-5-5-5-|-2-0-4-5-4-5-|
|-2-0-2---------|-2-0---------|-2-0-2---------|-2-0---------|
|-2-0-2---------|-2-0---------|-2-0-2---------|-2-0---------|

|---------------|-------------|---|
|---------------|-------------|---|
|---------------|-------------|---|
|-2-0-2-5-5-5-5-|-2-0-4-4-4-4-|-2-|
|-2-0-2---------|-2-0---------|-2-|
|-2-0-2---------|-2-0---------|-2-|



CHORUS 2

|--------------------------------|-----|-----|
|--------------------------------|-----|-----|
|--------------------------------|-----|-----|
|--------------------------------|-5---|-0---|
|--------------------------------|-5---|-0---|
|-0-2-2-0-2--0-2--0-2-2-0-2--0-2-|-5---|-0---|  4x



BRIDGE
guitar 1

|---------|---------|
|---------|---------|
|---------|---------|
|-2-------|-2-------|
|-2-------|-2-------|
|-2-------|-2-------|

|-------------|---------------|-------------|---------------|
|-------------|---------------|-------------|---------------|
|-------------|---------------|-------------|---------------|
|-2-----------|-3-3-3-3-3-3-3-|-2-----------|-3-3-3-3-3-3-3-|
|-2-----------|-3-3-3-3-3-3-3-|-2-----------|-3-3-3-3-3-3-3-|
|-2-0-2-0-2---|-3-3-3-3-3-3-3-|-2-0-2-0-2---|-3-3-3-3-3-3-3-|

|-------------|---------------|-------------|-----|-----|
|-------------|---------------|-------------|-----|-----|
|-------------|---------------|-------------|-----|-----|
|-2-----------|-3-3-3-3-3-3-3-|-2-----------|-5---|-0---|
|-2-----------|-3-3-3-3-3-3-3-|-2-----------|-5---|-0---|
|-2-0-2-0-2---|-3-3-3-3-3-3-3-|-2-0-2-0-2---|-5---|-0---|

|-------------|---------------|-------------|---------------|
|-------------|---------------|-------------|---------------|
|-------------|---------------|-------------|---------------|
|-2-----------|-3-3-3-3-3-3-3-|-2-----------|-3-3-3-3-3-3-3-|
|-2-----------|-3-3-3-3-3-3-3-|-2-----------|-3-3-3-3-3-3-3-|
|-2-0-2-0-2---|-3-3-3-3-3-3-3-|-2-0-2-0-2---|-3-3-3-3-3-3-3-|

|-------------|---------------|-------------|
|-------------|---------------|-------------|
|-------------|---------------|-------------|
|-2-----------|-3-3-3-3-3-3-3-|-2-----------|
|-2-----------|-3-3-3-3-3-3-3-|-2-----------|
|-2-0-2-0-2---|-3-3-3-3-3-3-3-|-2-0-2-0-2---|

guitar 2

|---------|---------|
|---------|---------|
|---------|---------|
|-2-------|-2-------|
|-2-------|-2-------|
|-2-------|-2-------|

|-------------|---------------|-------------|---------------|
|-------------|---------------|-------------|---------------|
|-------------|---------------|-------------|---------------|
|-2-----------|-3-3-3-3-3-3-3-|-2-----------|-3-3-3-3-3-3-3-|
|-2-----------|-3-3-3-3-3-3-3-|-2-----------|-3-3-3-3-3-3-3-|
|-2-0-2-0-2---|-3-3-3-3-3-3-3-|-2-0-2-0-2---|-3-3-3-3-3-3-3-|

|-------------|---------------|-------------|-----|-----|
|-------------|---------------|-------------|-----|-----|
|-------------|---------------|-------------|-----|-----|
|-2-----------|-3-3-3-3-3-3-3-|-2-----------|-5---|-0---|
|-2-----------|-3-3-3-3-3-3-3-|-2-----------|-5---|-0---|
|-2-0-2-0-2---|-3-3-3-3-3-3-3-|-2-0-2-0-2---|-5---|-0---|

|----------|----------|----------|---------|
|-12-------|-10-------|----------|---------|
|----------|----------|-12-------|-9-------|
|----------|----------|----------|---------|
|----------|----------|----------|---------|
|----------|----------|----------|---------|



CHORUS 3

|--------------------------------|-----|-----|
|--------------------------------|-----|-----|
|--------------------------------|-----|-----|
|--------------------------------|-5---|-0---|
|--------------------------------|-5---|-0---|
|-0-2-2-0-2--0-2--0-2-2-0-2--0-2-|-5---|-0---|  4x

|---------------|-------------|---------------|-------------|
|---------------|-------------|---------------|-------------|
|---------------|-------------|---------------|-------------|
|-2-0-2-5-5-5-5-|-2-0-4-4-4-4-|-2-0-2-5-5-5-5-|-2-0-4-4-4-4-|
|-2-0-2---------|-2-0---------|-2-0-2---------|-2-0---------|
|-2-0-2---------|-2-0---------|-2-0-2---------|-2-0---------|

|---------------|-------------|-------|
|---------------|-------------|-------|
|---------------|-------------|-------|
|-2-0-2-5-5-5-5-|-2-0-4-4-4-4-|-0-0-0-|
|-2-0-2---------|-2-0---------|-0-0-0-|
|-2-0-2---------|-2-0---------|-0-0-0-|
            

comments powered by Disqus
↑ Back to top | Ill Nino Tabs for When It Cuts. Lyrics for acoustic guitar and electric guitar. Tablatures and chords are parodies/interpretations of the original songs. You may use it for private study, scholarship, research or language learning purposes only