» » »

Ill Nino, What Comes Around Tabs (ver.2)

Artists:  A B C D E F G H I J K L M N O P Q R S T U V W X Y Z # 

What Comes Around Tabs (ver.2)

Ill Nino Tabs
Rating:
0/5 (0 votes)
What Comes Around lessons Tabs too difficult? Try these video lessons and learn fast
                
C Tuning

x = mute
. = palm mute

Vocal and Drum Intro

Guitar Intro
-----------------------------------------
-----------------------------------------
------------------------5-5-5-5-5-5-5-5--
--1-0-0--3-1-1--1-0-0---5-5-5-5-5-5-5-5--
--1-0-0--3-1-1--1-0-0---3-3-3-3-3-3-3-3--
--1-0-0--3-1-1--1-0-0--------------------

Verse w/ delay
------------------------------------------------------
--15-15-15-15-15-15-15-15--18-18-18--17-17-17--20-20--
------------------------------------------------------
------------------------------------------------------
------------------------------------------------------
------------------------------------------------------

Pre-Chorus - First 3 Times
---------------------------------------------------
---------------------------------------------------
---------------------------------------------------
---------------------------------------------------
---------------------------------------------------
--12-12-12-12-12-12-12-12-12-12-12-12-12-12-12-12--
   .  .  .  .  .  .  .  .  .  .  .  .  .  .  .  .                             
---------------------------------------------------
---------------------------------------------------
---------------------------------------------------
---------------------------------------------------
---------------------------------------------------
--8-8-8-8-8-8--10-10-10-10-10-10--3-3-3-3-3-3-3-3--
  . . . . . .   .  .  .  .  .  .  . . . . . . . .

Pre Chorus - Last Time
-------------------------------------------------------
-------------------------------------------------------
-------------------------------------------------------
---------------------------------------------------10--
----------------------------------------------------8--
--12-12-12-12-12-12-12-12-12-12-12-12-12-12-12-12---8--
   .  .  .  .  .  .  .  .  .  .  .  .  .  .  .  .

Chorus
------------------------------------------------------
------------------------------------------------------
------------------------------------------------------
--5-5-5-5-5-5-5-5-5-5--10-10-10-10-10-10-10-10-10-10--
--5-5-5-5-5-5-5-5-5-5---8--8--8--8--8--8--8--8--8--8--
--5-5-5-5-5-5-5-5-5-5---8--8--8--8--8--8--8--8--8--8--

Interlude (not sure, this sounds right to me)
----------------------
----------------------
--------10--------12--
-----12--------12-----
--12--------12--------
----------------------

Outro
----------------
----------------
----------------
--1-0-0--3-1-1--
--1-0-0--3-1-1--
--1-0-0--3-1-1--
            
Submit corrections

comments powered by Disqus
↑ Back to top | Ill Nino Tabs for What Comes Around. Lyrics for acoustic guitar and electric guitar. Tablatures and chords are parodies/interpretations of the original songs. You may use it for private study, scholarship, research or language learning purposes only