>
 >
What Comes Around

What Comes Around Guitar Tabs

Ill Nino - What Comes Around chords, tabs, tablatures, lyrics

Guitar lessons | Add/correct | Request | Top 50 tabs Artists:  A B C D E F G H I J K L M N O P Q R S T U V W X Y Z 0-9

What Comes Around Guitar Tabs – Ill Nino

CD, Sheet music, Poster

Do you like What Comes Around? Share with your friends now
Bass TabsBass Tabs v2Bass Tabs v3TabsTabs v2Tabs v3

Hey. This song kicks. The intro is bass. On the intro just before the guitar
kicks in you can hear two notes on the bass and its pretty hard to make out.
They're not even vital to it, lol, but I think thats them.

Intro: (Bass)
F|-----------------------------------------|
C|-----------------------------------------|
G|-------------------------------------2-3-|
C|--1-0--3-1--1-0~---1-0--3-1--1-0~--------|
   "I hate you...    I hate you..."  
Intro:
D|-----------------------------------------|
A|-----------------------------------------|
F|----------------------------5-5-5-5-5-5--|
C|----------------------------5-5-5-5-5-5--| x2
G|-1-0-x-0--3-1-x-1--1-0-x-0--3-3-3-3-3-3--|
C|-1-0-x-0--3-1-x-1--1-0-x-0---------------|

Verse: (With delay)
D|-----------------------------------------------------------------|
A|-15-15-15-15-15-15-15-15-15-15-15-15--18-18-18--17-17-17--20-20--|
F|-----------------------------------------------------------------| 
C|-----------------------------------------------------------------| x4
G|-----------------------------------------------------------------|
C|-----------------------------------------------------------------|

Pre-Chorus:
D|------------------------------------------------------------|
A|------------------------------------------------------------|
F|------------------------------------------------------------|
C|------------------------------------------------------------| X3
G|------------------------------------------------------------|
C|-12-12-12-12-12-12-12-12-12-12-12-12--8-8-8--10-10-10--3-3--|
PM| .  .  .  .  .  .  .  .  .  .  .  .  . . .   .  .  .  . .

D|----------------------------------------|
A|----------------------------------------|
F|----------------------------------------|
C|-----------------------------------10~--|
G|------------------------------------8~--|
C|-12-12-12-12-12-12-12-12-12-12-12---8~--|
PM| .  .  .  .  .  .  

Chorus: (The notes played on F and D are the 2nd guitar and clean)
D|-----5---------------------------5---------------------------5-----------------------|
A|-------------------------------------------------------------------------------------|
F|---7---------------------------7---------------------------7-------------------------|
C|-------------10-10-10-10-10--------------10-10-10-10-10--------------10-10-10-10-10--|
G|-5-5-5-5-5-5--8--8--8--8--8--5-5-5-5-5-5--8--8--8--8--8--5-5-5-5-5-5--8--8--8--8--8--|
C|-5-5-5-5-5-5--8--8--8--8--8--5-5-5-5-5-5--8--8--8--8--8--5-5-5-5-5-5--8--8--8--8--8--|


D|-----5-----------------------|
A|-----------------------------|
F|---7-------------------------|
C|-------------10-10-10-10-10--|
G|-5-5-5-5-5-5--8--8--8--8--8--|
C|-5-5-5-5-5-5--8--8--8--8--8--|

Intro Riff:
D|-----------------------------------------|
A|-----------------------------------------|
F|----------------------------5-5-5-5-5-5--|
C|----------------------------5-5-5-5-5-5--| x3
G|-1-0-x-0--3-1-x-1--1-0-x-0--3-3-3-3-3-3--|
C|-1-0-x-0--3-1-x-1--1-0-x-0---------------|

D|-----------------------------------|
A|-----------------------------------|
F|------------------------------5~---|
C|------------------------------5~---|
G|-1-0-x-0--3-1-x-1--1-0-x-0--0-3~---|
C|-1-0-x-0--3-1-x-1--1-0-x-0--0------|

2nd Verse:
D|-----------------------------------------------------------------|
A|-15-15-15-15-15-15-15-15-15-15-15-15--18-18-18--17-17-17--20-20--|
F|-----------------------------------------------------------------| 
C|-----------------------------------------------------------------| x4
G|-----------------------------------------------------------------|
C|-----------------------------------------------------------------|

Pre-Chorus:
D|------------------------------------------------------------|
A|------------------------------------------------------------|
F|------------------------------------------------------------|
C|------------------------------------------------------------| X3
G|------------------------------------------------------------|
C|-12-12-12-12-12-12-12-12-12-12-12-12--8-8-8--10-10-10--3-3--|
PM| .  .  .  .  .  .  .  .  .  .  .  .  . . .   .  .  .  . .

D|----------------------------------------|
A|----------------------------------------|
F|----------------------------------------|
C|-----------------------------------10~--|
G|------------------------------------8~--|
C|-12-12-12-12-12-12-12-12-12-12-12---8~--|
PM| .  .  .  .  .  .  

Chorus:
D|-----5---------------------------5---------------------------5-----------------------|
A|-------------------------------------------------------------------------------------|
F|---7---------------------------7---------------------------7-------------------------|
C|-------------10-10-10-10-10--------------10-10-10-10-10--------------10-10-10-10-10--|
G|-5-5-5-5-5-5--8--8--8--8--8--5-5-5-5-5-5--8--8--8--8--8--5-5-5-5-5-5--8--8--8--8--8--|
C|-5-5-5-5-5-5--8--8--8--8--8--5-5-5-5-5-5--8--8--8--8--8--5-5-5-5-5-5--8--8--8--8--8--|


D|-----5-----------------------|
A|-----------------------------|
F|---7-------------------------|
C|-------------10-10-10-10-10--|
G|-5-5-5-5-5-5--8--8--8--8--8--|
C|-5-5-5-5-5-5--8--8--8--8--8--|

D|-----5---------------------------5---------------------------5-----------------------|
A|-------------------------------------------------------------------------------------|
F|---7---------------------------7---------------------------7-------------------------|
C|-------------10-10-10-10-10--------------10-10-10-10-10--------------10-10-10-10-10--|
G|-5-5-5-5-5-5--8--8--8--8--8--5-5-5-5-5-5--8--8--8--8--8--5-5-5-5-5-5--8--8--8--8--8--|
C|-5-5-5-5-5-5--8--8--8--8--8--5-5-5-5-5-5--8--8--8--8--8--5-5-5-5-5-5--8--8--8--8--8--|


D|-----5-----------------------|
A|-----------------------------|
F|---7-------------------------|
C|-------------10-10-10-10-10--|
G|-5-5-5-5-5-5--8--8--8--8--8--|
C|-5-5-5-5-5-5--8--8--8--8--8--|

Acoustic Bridge:
D|---------------------------|
A|-----6-----8------6-----8--|
F|-----7-----7------7-----7--|
C|---7-----7------7-----7----|
G|-5-----5------5-----5------|
C|---------------------------|

                                                                    
D|-------------------------------------5-5-5-5----5-5----6-6-6-6----6-6----|
A|-6-6-6-6--6-6-6----8-8-8-8--8-8-8----6-6-6-6----6-6----6-6-6-6----7-7----|
F|-7-7-7-7--7-7-7-7--7-7-7-7--7-7-7-7--7-7-7-7--7-7-7-7--7-7-7-7--7-7-7-7--|
C|-7-7-7-7--7-7-7-7--7-7-7-7--7-7-7-7--7-7-7-7--7-----7--7-7-7-7--7-----7--|
G|-5-5-5-5--5-----5--5-5-5-5--5-----5--5-5-5-5--5-----5--5-5-5-5--5-----5--|
C|-------------------------------------------------------------------------|

D|-------------------------------------5-5-5-5----5-5----6-6-6-6----6~---|
A|-6-6-6-6--6-6-6----8-8-8-8--8-8-8----6-6-6-6----6-6----6-6-6-6----7~---|
F|-7-7-7-7--7-7-7-7--7-7-7-7--7-7-7-7--7-7-7-7--7-7-7-7--7-7-7-7--7-7~---|
C|-7-7-7-7--7-7-7-7--7-7-7-7--7-7-7-7--7-7-7-7--7-----7--7-7-7-7--7------|
G|-5-5-5-5--5-----5--5-5-5-5--5-----5--5-5-5-5--5-----5--5-5-5-5--5------|
C|-----------------------------------------------------------------------|


Chorus:
D|--------------------------------------5---------------------------5-----------------------|
A|------------------------------------------------------------------------------------------|
F|------------------------------------7---------------------------7-------------------------|
C|------------------10-10-10-10-10--------------10-10-10-10-10--------------10-10-10-10-10--|
G|-------------------8--8--8--8--8--5-5-5-5-5-5--8--8--8--8--8--5-5-5-5-5-5--8--8--8--8--8--|
C|-------------------8--8--8--8--8--5-5-5-5-5-5--8--8--8--8--8--5-5-5-5-5-5--8--8--8--8--8--|
"I have nothing to say..."

D|-----5-----------------------|
A|-----------------------------|
F|---7-------------------------|
C|-------------10-10-10-10-10--|
G|-5-5-5-5-5-5--8--8--8--8--8--|
C|-5-5-5-5-5-5--8--8--8--8--8--|


D|-----5-------------------------5-------------------------5-----------------------|
A|---------------------------------------------------------------------------------|
F|---7-------------------------7-------------------------7-------------------------|
C|-------------10-10-10-10~--------------10-10-10-10~--------------10-10-10-10-10--|
G|-5-5-5-5-5-5--8--8--8--8~--5-5-5-5-5-5--8--8--8--8~--5-5-5-5-5-5--8--8--8--8--8--|
C|-5-5-5-5-5-5--8--8--8--8~--5-5-5-5-5-5--8--8--8--8~--5-5-5-5-5-5--8--8--8--8--8--|


D|-----5-----------------------|
A|-----------------------------|
F|---7-------------------------|
C|-------------10-10-10-10-10--|
G|-5-5-5-5-5-5--8--8--8--8--8--|
C|-5-5-5-5-5-5--8--8--8--8--8--|

Outro:
D|---------------------------|
A|---------------------------|
F|---------------------------|
C|---------------------------|
G|-0-1p0-0-0-0--1-3p1-1-1-1--|
C|-0-1p0-0-0-0--1-3p1-1-1-1--|

Lyrics:

I hate you, I hate you - Shut up

You think that I'm the on to blame
Everything I lose is just a piece of what there is to gain
You think its cool and all is fine
Now is the day when you pay, this is my time 
I feel for you nothing but pain
I am what you will be, you are dying in me
I love you, I hate you, I miss you...

You're always thinking you're so perfect
Those thoughts drove me away from home
But if you put me through your tests
Then I will fade

I have nothing to say 
But I feel like my mouth is open
Everything that is real
Comes around
Comes around...

Shut up...

Your stupid face just makes me sick
I see you changing everyday
to fit into the newest clique
I know you, but everything you do
Is just a part of you, you'll never see the truth
I hate the way you make me feel
I hate the way you think you're real
Your one voice it destroys my one choice

You're always thinkg youre so perfect
Those thoughts drove me away from home
But if you put me through these tests
Then I will fade

I have nothing to say 
But i feel like my mouth is open
Everything that is real
Comes around
Comes around...

Tu vida es mia
Your fear is living here in me

Es que no entiendo come en la vida puedes acer
La paz entre nostros cuando no vas a decir
Y la gratitud que tu nunca vas a ver
Has now turned to hate

I have nothing to say 
But I feel like my mouth is wide open
Everything that is real
Comes around
Comes around...

Shut up!


Legend
------

 h  = hammer-on		 |  = bar
 p  = pull-off		||  = double bar
 b  = bend		      ||* = repeat start
 r  = bend release	*|| = repeat end
 /  = slide up/down	*|  = double bar (end)
[5] = nat. harmonic	 !  = repeat beat (,8th)
<5> = art. harmonic	!!  = repeat beat (16th)
 ~  = vibrato		 %  = repeat measure
 tr = trill		       :  = bar (freetime)
 T  = tap		      du  = tremolo bar dip
 TP = trem. picking	 d  = tremolo bar down
 PM = palm muting	       u  = tremolo bar up
 S  = slap		      ud  = tremolo bar inverted dip
 P  = pop		       =  = hold (bend or tremolo bar)

******************************************************************************************
******************************************************************************************





Comments


Popular Ill Nino tabs & chords
With You Chords
Demi-god Tabs
El Nino Tabs
Eye For An Eye Tabs
How Can I Live? Tabs
I Am Loco Tabs
La Liberacion Tabs
My Pleasant Torture Intro Tabs
Predisposed 2 Tabs
What You Deserve Tabs


Song lyrics



↑ Back to top | Tablatures and chords are parodies/interpretations of the original songs. You may use it for private study, scholarship, research or language learning purposes only
© 2014 AZChords.com Contact us | Privacy policy | DMCA | Add/correct tabs | Request tabs | Top 50 tabs