>
 >
What Comes Around 2

What Comes Around 2 Guitar Tabs

Ill Nino - What Comes Around 2 chords, tabs, tablatures, lyrics

Guitar lessons | Add/correct | Request | Top 50 tabs Artists:  A B C D E F G H I J K L M N O P Q R S T U V W X Y Z 0-9

What Comes Around 2 Guitar Tabs – Ill Nino

CD, Sheet music, Poster

Do you like What Comes Around 2? Share with your friends now
Bass TabsBass Tabs v2Bass Tabs v3TabsTabs v2Tabs v3
Tuning: Drop D (E B G D A D) I know, I know, they use C tuning, BUT

Great Heavy Melodic Band. Tabbed all this on an acoustic, so
it might be slightly off.

INTRO

E|----------------------------------------------------------
B|----------------------------------------------------------
G|----------------------------------------------------------
D|--8h10-10-10--10h11-11-11--8h10-10-10--8-8-8-8-8-8-------- (x2)
A|--8h10-10-10--10h11-11-11--8h10-10-10--8-8-8-8-8-8--------
D|--8h10-10-10--10h11-11-11--8h10-10-10--8-8-8-8-8-8--------

VERSE (Played with some weird effect)

E|----------------------------------------------------------
B|----------------------------------------------------------
G|---------------------------8-8-8-7-7-7-10-----------------
D|---10-10-10-10-10-10-10-10-------------------------------- (x4)
A|----------------------------------------------------------
D|----------------------------------------------------------

Palm Mute, Strum: up and downstrokes

E|----------------------------------------------------------
B|----------------------------------------------------------
G|--5-------------------------------------------------------
D|--5--(x8)---6----------8---------------------------------- (x3) 
A|--3---------6--(x4)----8--(x4)----------------------------
D|------------6----------8----------------------------------


E|----------------------------------------------------------
B|----------------------------------------------------------
G|--5-------------------------------------------------------
D|--5--(x8)---6--------------------------------------------- 
A|--3---------6---------------------------------------------
D|------------6---------------------------------------------
   P.M ......


CHORUS

Guitar One (Clean Tone)

E|----------------------------------------------------------
B|------6---------------------------------------------------
G|----5-----------------------------------------------------
D|--3------------------------------------------------------- (x4)
A|--3-------------------------------------------------------
D|--3-------------------------------------------------------

Guitar Two (Distortion)

E|----------------------------------------------------------
B|----------------------------------------------------------
G|----------------------------------------------------------
D|--3--3--3--3---6--6--6--6--------------------------------- (x4)
A|--3--3--3--3---6--6--6--6---------------------------------
D|--3--3--3--3---6--6--6--6---------------------------------


E|----------------------------------------------------------
B|----------------------------------------------------------
G|----------------------------------------------------------
D|--8h10-10-10--10h11-11-11--8h10-10-10--8-8-8-8-8---------- (x4)
A|--8h10-10-10--10h11-11-11--8h10-10-10--8-8-8-8-8----------
D|--8h10-10-10--10h11-11-11--8h10-10-10--8-8-8-8-8----------


E|----------------------------------------------------------
B|----------------------------------------------------------
G|---------------------------8-8-8-7-7-7-10-----------------
D|---10-10-10-10-10-10-10-10-------------------------------- (x4)
A|----------------------------------------------------------
D|----------------------------------------------------------

Guitar Two (Palm Mute, Strum: up and downstrokes)

E|----------------------------------------------------------
B|----------------------------------------------------------
G|--5-------------------------------------------------------
D|--5--(x8)---6----------8---------------------------------- (x3) 
A|--3---------6--(x4)----8--(x4)----------------------------
D|------------6----------8----------------------------------


E|----------------------------------------------------------
B|----------------------------------------------------------
G|--5-------------------------------------------------------
D|--5--(x8)---6--------------------------------------------- 
A|--3---------6---------------------------------------------
D|------------6---------------------------------------------
   P.M ......

CHORUS

Guitar One (Clean Tone)

E|----------------------------------------------------------
B|------6---------------------------------------------------
G|----5-----------------------------------------------------
D|--3------------------------------------------------------- (x8)
A|--3-------------------------------------------------------
D|--3-------------------------------------------------------

Guitar Two (Distortion)

E|----------------------------------------------------------
B|----------------------------------------------------------
G|----------------------------------------------------------
D|--3--3--3--3---6--6--6--6--------------------------------- (x8)
A|--3--3--3--3---6--6--6--6---------------------------------
D|--3--3--3--3---6--6--6--6---------------------------------

INTERLUDE(Played on Acoustic Guitar, I think)

E|----------------------------------------------------------
B|------4------6------4------6------------------------------
G|------5------5------5------5------------------------------
D|----5------5------5------5-------------------------------- (x2)
A|--3------3------3------3----------------------------------
D|----------------------------------------------------------

E|----------------------------------------------------------
B|------4------6------8------9-8-6--------------------------
G|------5------5--------------------------------------------
D|----5------5------5------5-------------------------------- (x2)
A|--3------3------3------3----------------------------------
D|----------------------------------------------------------


E|----------------------------------------------------------
B|----------------------------------------------------------
G|----------------------------------------------------------
D|--6-------------------------------------------------------
A|--6-------------------------------------------------------
D|--6-------------------------------------------------------

THEN PLAY CHORUS 7 TIMES

OUTRO

E|----------------------------------------------------------
B|----------------------------------------------------------
G|----------------------------------------------------------
D|--8h10-10-10--10h11-11-11--------------------------------- 
A|--8h10-10-10--10h11-11-11---------------------------------
D|--8h10-10-10--10h11-11-11---------------------------------




xxxxxxxxxxxxxxxxxxxxxxxxxxx THE END xxxxxxxxxxxxxxxxxxxxxxxxxxxxx





Comments


Popular Ill Nino tabs & chords
Disposal Bass Tabs
Bleed Like You Tabs
Cleansing 1 Tabs
Demi-god Tabs
If You Still Hate Me 2 Tabs
This Is War Tabs
Unreal 1 Tabs
Violent Saint Tabs
What Comes Around Remix Tabs
With You Ukulele


Song lyrics



↑ Back to top | Tablatures and chords are parodies/interpretations of the original songs. You may use it for private study, scholarship, research or language learning purposes only
© 2014 AZChords.com Contact us | Privacy policy | DMCA | Add/correct tabs | Request tabs | Top 50 tabs