>
 >
Iam Loco

Iam Loco Bass Tabs

Ill Nino - Iam Loco chords, tabs, tablatures, lyrics

Guitar lessons | Add/correct | Request | Top 50 tabs Artists:  A B C D E F G H I J K L M N O P Q R S T U V W X Y Z 0-9

Iam Loco Bass Tabs – Ill Nino

CD, Sheet music, Poster

Do you like Iam Loco? Share with your friends now
Bass Tabs
Tune:EADG

This is a pretty easy song...
but I don't think that the bass player,
play this song with a tone so high!!! .O
I think is lower than that,but it is correct!!
                            ENJOY!!!rate please!!
                                STAY SICK!!!

          intro:(0:33)

G|--------|--------|
D|--------|--------|
A|--3-3X--|--3-3X--|
E|--------|--------|

  

G|---------------------|
D|---------------------|
A|--3X3X4-3334334334X--|
E|---------------------|   X4

---------------------------------------

           verse:(0:55)

G|--------|--------|--------|--------|
D|--------|--------|--------|--------|
A|--3-3X--|--3-3X--|--3-3X--|--3-3X--|
E|--------|--------|--------|--------|

          pre-chorus:(1:17)

G|---------------------|
D|---------------------|
A|--3X3X4-3334334334X--|
E|---------------------|   X3

G|---------------------|
D|---------------------|
A|--3X3X4-3334334444X--|
E|---------------------|

---------------------------------------

          chorus:(1:28)

G|-------------|
D|-------------|
A|--3---43X3X--|
E|-------------|   X3

G|-------------|
D|-------------|
A|--6----------|
E|-------------|

G|-------------|
D|-------------|
A|--3---43X3X--|
E|-------------|   X3

G|-------------------|
D|-------------------|
A|--6------44443X3X--|    pause
E|-------------------|

---------------------------------------

          verse:no bass

        pre-chorus:(2:22)

G|---------------------|
D|---------------------|
A|--3X3X4-3334334334X--|
E|---------------------|   X3

G|---------------------|
D|---------------------|
A|--3X3X4-3334334444X--|
E|---------------------|

---------------------------------------

            chorus:(2:34)

G|-------------|
D|-------------|
A|--3---43X3X--|
E|-------------|   X3

G|-------------|
D|-------------|
A|--6----------|
E|-------------|

          X3

G|-------------|
D|-------------|
A|--3---43X3X--|
E|-------------|   X3

G|---------------|
D|---------------|
A|--6------4444--|
E|---------------|

             outro:(3:17)

G|---------------------|
D|---------------------|
A|--3X3X4-3334334334X--|
E|---------------------|   X3

G|---------------------|
D|---------------------|
A|--3X3X4-3334334444X--|
E|---------------------|

G|---------|
D|---------|
A|--3-3X---|
E|---------|

                 END





Comments


Popular Ill Nino tabs & chords
Liar 2 Bass Tabs
Predisposed 4 Bass Tabs
Violent Saint Bass Tabs
What Comes Around Remix Bass Tabs
Death Wants More Tabs
Eva Tabs
No Murder Tabs
No Murder 1 Tabs
Rumba Tabs
What You Deserve Tabs


Song lyrics



↑ Back to top | Tablatures and chords are parodies/interpretations of the original songs. You may use it for private study, scholarship, research or language learning purposes only
© 2014 AZChords.com Contact us | Privacy policy | DMCA | Add/correct tabs | Request tabs | Top 50 tabs