» » »

Ill Nino, I Am Loco Tabs (ver.2)

Artists:  A B C D E F G H I J K L M N O P Q R S T U V W X Y Z # 

I Am Loco Tabs (ver.2)

Ill Nino Tabs
Rating:
3/5 (2 votes)
I Am Loco lessons Tabs too difficult? Try these video lessons and learn fast
                Ill Niño - I Am Loco
Questions/corrections: webmaster[at]illninoworld[dot]com

TUNED: drop C   (C,G,C,F,A,D)


INTRO (2x)
---------------------------------------------------------|
---------------------------------------------------------|
---------------------------------------------------------|
---------------------------------------------------------|
-0-0-----------------------------------------------------|
-0-0---1-0-0---0-0-1-0-0-1-0-0-0---1-0-0---0-0-1-0-0-1-0-|
 * *

PRE-VERSE (2x)
---------------------------------------------------------|
---------------------------------------------------------|
---------------------------------------------------------|
---------------------------------------------------------|
-0-0---1-0-0---0-0-1-0-0-1-0-0-0---1-0-0---0-0-1-0-0-1-0-|
-0-0---1-0-0---0-0-1-0-0-1-0-0-0---1-0-0---0-0-1-0-0-1-0-|
 * *                         * *

VERSE (4x)
-------|
-------|
-------|
-------|
-0-0---|
-0-0---|
 * *

PRE-CHORUS (2x)
---------------------------------------------------------|
---------------------------------------------------------|
---------------------------------------------------------|
---------------------------------------------------------|
-0-0---1-0-0---0-0-1-0-0-1-0-0-0---1-0-0---0-0-1-0-0-1-0-|
-0-0---1-0-0---0-0-1-0-0-1-0-0-0---1-0-0---0-0-1-0-0-1-0-|
 * *                         * *

CHORUS
Part 1
-----------------------------------------------------------------|
-----------------------------------------------------------------|
-------------------------------------------------5---------------|
-0-------1-0-0---0-------1-0-0---0-------1-0-0---3---------------|
-0-------1-0-0---0-------1-0-0---0-------1-0-0---3---------------|
-0-------1-0-0---0-------1-0-0---0-------1-0-0---3---------------|

Part 2
-----------------------------------------------------------------|
-----------------------------------------------------------------|
-------------------------------------------------5---------------|
-0-------1-0-0---0-------1-0-0---0-------1-0-0---3-------1-1-1-1-|
-0-------1-0-0---0-------1-0-0---0-------1-0-0---3-------1-1-1-1-|
-0-------1-0-0---0-------1-0-0---0-------1-0-0---3-------1-1-1-1-|


Verse (1x)
Pre-Chorus (2x)
Chorus Part 1 (3x)
Chorus Part 2 (1x)

OUTRO
Part 1 (2x)
---------------------------------------------------------|
---------------------------------------------------------|
---------------------------------------------------------|
---------------------------------------------------------|
-0-0---1-0-0---0-0-1-0-0-1-0-0-0---1-0-0---0-0-1-0-0-1-0-|
-0-0---1-0-0---0-0-1-0-0-1-0-0-0---1-0-0---0-0-1-0-0-1-0-|
 * *                         * *

Part 2
-------|
-------|
-------|
-------|
-0-0---|
-0-0---|
            

comments powered by Disqus
↑ Back to top | Ill Nino Tabs for I Am Loco. Lyrics for acoustic guitar and electric guitar. Tablatures and chords are parodies/interpretations of the original songs. You may use it for private study, scholarship, research or language learning purposes only