» » »

I Am Loco Tabs (ver.1)

Artists:  A B C D E F G H I J K L M N O P Q R S T U V W X Y Z # 

I Am Loco Tabs (ver.1)

Ill Nino
Rating:
3/5 (4 votes)

Tabs too difficult? Try these video lessons and learn fast.
                 ILL NINO TABS


  Band: ill nino

-----------------------------------------------------

  tuning: Drop D and down 1 and 1/2 step ( B F# B E G# C# )

-----------------------------------------------------



riff 1

C#-------------------------------------------------------|
G#-------------------------------------------------------|
E--------------------------------------------------------|
B--------------------------------------------------------|
F#-0-0---------------------------------------------------|
B--0-0--1-0-0-0-0-1-0-1-0-0-0-1-0-0-0-0-1-0-1-0-0-0------|
pm ...                 2 x

riff2
1 guitar still play riff 1 and the other play like this

c#------------------------------------------------------------|
G#--17-17H18P17-17-17H18P17H18-----18-18H19P18-18-18H19P18H19-|
E-------------------------------------------------------------|
B-------------------------------------------------------------|
F#------------------------------------------------------------|
B-------------------------------------------------------------|

vers

B--------------------------------------|
F#--0----------0--------0----------0---|
B---0----------0--------0----------0---|
pm  ..        ...       ..         ..
guitar 1 play riff 1 and guitar 2 play riff 2 :   3 times

ref.

B------------------- ----------------------- ------|
F#--2---2---2---6--- ------2---2---2--6----- --0-0-|
B---2---2---2---6--- ------2---2---2--6----- --0-0-|
                                            pm ...

vers.....but the guitar don´t play

and after the vers they play riff1 and riff2:  3times

and then the ref:  4 times

and riff1 and riff2 3 times

and the end

B----0--0----------------|
F#---0--0----------------|
B----0--0----------------|

......beybye....enjoy..// Mr piclenose
            
Tabs too difficult? Try these video lessons and learn fast.


comments powered by Disqus
↑ Back to top | Tablatures and chords are parodies/interpretations of the original songs. You may use it for private study, scholarship, research or language learning purposes only