» » »

Cleansing Tabs (ver.3)

Artists:  A B C D E F G H I J K L M N O P Q R S T U V W X Y Z # 

Cleansing Tabs (ver.3)

Ill Nino
Rating:
0/5 (0 votes)

Hard to play? Try these video lessons and learn fast.
                
Tuning Drop C (C,G,C,F,A,D)


Intro
------------------------------------------
------------------------------------------
------------------------------------------
------------------------------------------ x4
------------------------------------------
--0-0(x1)--6-0-6-0-6-6-0~--6-0-6-0-6-0~--- 


End Intro
--------------------
--------------------
--------------------
------------0-0-0---
------------0-0-0---
--6-0-6-0-6-0-0-0---


Verse
------------------------------
------------------------------
------------------------------ 
--0-0-0----6-0-6-0-6-0-0-0---- x3
--0-0-0----6-0-6-0-6-0-0-0----
--0-0-0----6-0-6-0-6-0-0-0----


End Verse
------------------
------------------
------------------
--0-0-0----6~-----
--0-0-0----6~-----
--0-0-0----6~-----


Chorus 1
--------------------------------------------
--------------------------------------------
--------------------------------------------
---5555555555-10101010-888888888-66666666--- x4
---5555555555-10101010-888888888-66666666---
---5555555555-10101010-888888888-66666666---


Intro + End Intro

Verse + End Verse

Chorus 2 = Chorus 1


End Chorus 2
---------------
---------------
---------------
---5~----------
---5~----------
---5~----------


Bridge (Clean + Echo) - Guitar 1
-------8-7---------------12-10--7--5h7-------8-7-------------7-5----5h7---
---5-5-----8--7-8-----------------------5-5------8--7-8----------8-------- x2
--------------------8-8----------------------------------8-8--------------


End Bridge (Palm Mute) - Guitar 2
------------------
------------------
------------------
---33333333333----
---33333333333----
---33333333333----


Chorus 2 + End Chorus


Please, rate this tab!;-)
Thanks!
            
Hard to play? Try these video lessons and learn fast. | Correct




comments powered by Disqus
↑ Back to top | Tablatures and chords are parodies/interpretations of the original songs. You may use it for private study, scholarship, research or language learning purposes only