» » »

Ill Nino, Cleansing Tabs (ver.2)

Artists:  A B C D E F G H I J K L M N O P Q R S T U V W X Y Z # 

Cleansing Tabs (ver.2)

Ill Nino Tabs
 Rating:
4/5 (6 votes)
Cleansing lessons Tabs too difficult? Try these video lessons and learn fast
1
                Band- Ill Nino
Song- Cleansing

TUNED: drop C   (C,G,C,F,A,D)


----------------------------
INTRO

|--------|--------|--------|--------|-------|
|--------|--------|--------|--------|-------|
|-13-----|-13-----|-13-----|-13-----|-------|
|--------|--------|--------|--------|-0-0---|
|--------|--------|--------|--------|-0-0---|
|--------|--------|--------|--------|-0-0---|

|---------------------|---------------------|
|---------------------|---------------------|
|---------------------|---------------------|
|-0---6-6-6-0-0-6-6-6-|-0---6-6-6-0-0-6-6-6-|
|-0---6-6-6-0-0-6-6-6-|-0---6-6-6-0-0-6-6-6-|
|-0---6-6-6-0-0-6-6-6-|-0---6-6-6-0-0-6-6-6-|

|---------------------|---------------------|
|---------------------|---------------------|
|---------------------|---------------------|
|-0---6-6-6-0-0-6-6-6-|-0---6-6-6-0-0-6-6-6-|
|-0---6-6-6-0-0-6-6-6-|-0---6-6-6-0-0-6-6-6-|
|-0---6-6-6-0-0-6-6-6-|-0---6-6-6-0-0-6-6-6-|


VERSE 1
guitar 1

|---------|---------|-------|
|---------|---------|-------|
|-7-7-7---|-7-7-7---|-------|
|-7-7-7---|-7-7-7---|-6-6-6-|
|-5-5-5---|-5-5-5---|-6-6-6-|
|-0-0-0---|-0-0-0---|-6-6-6-|

|---------|---------|-------|
|---------|---------|-------|
|-7-7-7---|-7-7-7---|-------|
|-7-7-7---|-7-7-7---|-6-6-6-|
|-5-5-5---|-5-5-5---|-6-6-6-|
|-0-0-0---|-0-0-0---|-6-6-6-|

|---------|---------|-------|
|---------|---------|-------|
|-7-7-7---|-7-7-7---|-------|
|-7-7-7---|-7-7-7---|-6-6-6-|
|-5-5-5---|-5-5-5---|-6-6-6-|
|-0-0-0---|-0-0-0---|-6-6-6-|

|---------|---------|-----|
|---------|---------|-----|
|-7-7-7---|-7-7-7---|-----|
|-7-7-7---|-7-7-7---|-5---|
|-5-5-5---|-5-5-5---|-5---|
|-0-0-0---|-0-0-0---|-5---|


guitar 2

|---------|---------|-------|
|---------|---------|-------|
|-7-7-7---|-7-7-7---|-------|
|-7-7-7---|-7-7-7---|-6-6-6-|
|-5-5-5---|-5-5-5---|-6-6-6-|
|-0-0-0---|-0-0-0---|-6-6-6-|

|---------|---------|-------|
|---------|---------|-------|
|-7-7-7---|-7-7-7---|-------|
|-7-7-7---|-7-7-7---|-6-6-6-|
|-5-5-5---|-5-5-5---|-6-6-6-|
|-0-0-0---|-0-0-0---|-6-6-6-|

|---------|---------|---------|---------|
|-----8---|-----8---|-----8---|-----8---|
|---7---7-|---7---7-|---7---7-|---7---7-|
|-7-------|-7-------|-7-------|-7-------|
|---------|---------|---------|---------|
|---------|---------|---------|---------|

|---------|---------|---------|---------|
|-----9---|-----9---|-----9---|-----9---|
|---8---8-|---8---8-|---8---8-|---8---8-|
|-7-------|-7-------|-7-------|-7-------|
|---------|---------|---------|---------|
|---------|---------|---------|---------|

|---------|---------|---------|---------|
|-----8---|-----8---|-----8---|-----8---|
|---7---7-|---7---7-|---7---7-|---7---7-|
|-7-------|-7-------|-7-------|-7-------|
|---------|---------|---------|---------|
|---------|---------|---------|---------|

|---------|---------|---------|------|
|-----9---|-----9---|-----9---|------|
|---8---8-|---8---8-|---8---8-|-12---|
|-7-------|-7-------|-7-------|-10---|
|---------|---------|---------|-10---|
|---------|---------|---------|------|


CHORUS 1

|---------|---------|---------|-------------|
|---------|---------|---------|-------------|
|---------|---------|---------|-------------|
|-5-5-5-5-|-5-5-5-5-|-5-5-5-5-|-11-11-11-11-|
|-5-5-5-5-|-5-5-5-5-|-5-5-5-5-|-11-11-11-11-|
|-5-5-5-5-|-5-5-5-5-|-5-5-5-5-|-11-11-11-11-|

|---------|---------|---------|---------|
|---------|---------|---------|---------|
|---------|---------|---------|---------|
|-9-9-9-9-|-9-9-9-9-|-9-9-9-9-|-7-7-7-7-|
|-9-9-9-9-|-9-9-9-9-|-9-9-9-9-|-7-7-7-7-|
|-9-9-9-9-|-9-9-9-9-|-9-9-9-9-|-7-7-7-7-|

|---------|---------|---------|-------------|
|---------|---------|---------|-------------|
|---------|---------|---------|-------------|
|-5-5-5-5-|-5-5-5-5-|-5-5-5-5-|-11-11-11-11-|
|-5-5-5-5-|-5-5-5-5-|-5-5-5-5-|-11-11-11-11-|
|-5-5-5-5-|-5-5-5-5-|-5-5-5-5-|-11-11-11-11-|

|---------|---------|---------|---------|
|---------|---------|---------|---------|
|---------|---------|---------|---------|
|-9-9-9-9-|-9-9-9-9-|-9-9-7-7-|-7-7-7-7-|
|-9-9-9-9-|-9-9-9-9-|-9-9-7-7-|-7-7-7-7-|
|-9-9-9-9-|-9-9-9-9-|-9-9-7-7-|-7-7-7-7-|

|---------------------|---------------------|
|---------------------|---------------------|
|---------------------|---------------------|
|-0---6-6-6-0-0-6-6-6-|-0---6-6-6-0-0-6-6-6-|
|-0---6-6-6-0-0-6-6-6-|-0---6-6-6-0-0-6-6-6-|
|-0---6-6-6-0-0-6-6-6-|-0---6-6-6-0-0-6-6-6-|

|---------------------|---------------------|
|---------------------|---------------------|
|---------------------|---------------------|
|-0---6-6-6-0-0-6-6-6-|-0---6-6-6-0-0-6-6-6-|
|-0---6-6-6-0-0-6-6-6-|-0---6-6-6-0-0-6-6-6-|
|-0---6-6-6-0-0-6-6-6-|-0---6-6-6-0-0-6-6-6-|


VERSE 2
guitar 1

|---------|---------|-------|
|---------|---------|-------|
|-7-7-7---|-7-7-7---|-------|
|-7-7-7---|-7-7-7---|-6-6-6-|
|-5-5-5---|-5-5-5---|-6-6-6-|
|-0-0-0---|-0-0-0---|-6-6-6-|

|---------|---------|-------|
|---------|---------|-------|
|-7-7-7---|-7-7-7---|-------|
|-7-7-7---|-7-7-7---|-6-6-6-|
|-5-5-5---|-5-5-5---|-6-6-6-|
|-0-0-0---|-0-0-0---|-6-6-6-|

|---------|---------|-------|
|---------|---------|-------|
|-7-7-7---|-7-7-7---|-------|
|-7-7-7---|-7-7-7---|-6-6-6-|
|-5-5-5---|-5-5-5---|-6-6-6-|
|-0-0-0---|-0-0-0---|-6-6-6-|

|---------|---------|-----|
|---------|---------|-----|
|-7-7-7---|-7-7-7---|-----|
|-7-7-7---|-7-7-7---|-5---|
|-5-5-5---|-5-5-5---|-5---|
|-0-0-0---|-0-0-0---|-5---|


guitar 2

|---------|---------|-------|
|---------|---------|-------|
|-7-7-7---|-7-7-7---|-------|
|-7-7-7---|-7-7-7---|-6-6-6-|
|-5-5-5---|-5-5-5---|-6-6-6-|
|-0-0-0---|-0-0-0---|-6-6-6-|

|---------|---------|-------|
|---------|---------|-------|
|-7-7-7---|-7-7-7---|-------|
|-7-7-7---|-7-7-7---|-6-6-6-|
|-5-5-5---|-5-5-5---|-6-6-6-|
|-0-0-0---|-0-0-0---|-6-6-6-|

|---------|---------|---------|---------|
|-----8---|-----8---|-----8---|-----8---|
|---7---7-|---7---7-|---7---7-|---7---7-|
|-7-------|-7-------|-7-------|-7-------|
|---------|---------|---------|---------|
|---------|---------|---------|---------|

|---------|---------|---------|---------|
|-----9---|-----9---|-----9---|-----9---|
|---8---8-|---8---8-|---8---8-|---8---8-|
|-7-------|-7-------|-7-------|-7-------|
|---------|---------|---------|---------|
|---------|---------|---------|---------|

|---------|---------|---------|---------|
|-----8---|-----8---|-----8---|-----8---|
|---7---7-|---7---7-|---7---7-|---7---7-|
|-7-------|-7-------|-7-------|-7-------|
|---------|---------|---------|---------|
|---------|---------|---------|---------|

|---------|---------|---------|------|
|-----9---|-----9---|-----9---|------|
|---8---8-|---8---8-|---8---8-|-12---|
|-7-------|-7-------|-7-------|-10---|
|---------|---------|---------|-10---|
|---------|---------|---------|------|


CHORUS 2

|---------|---------|---------|-------------|
|---------|---------|---------|-------------|
|---------|---------|---------|-------------|
|-5-5-5-5-|-5-5-5-5-|-5-5-5-5-|-11-11-11-11-|
|-5-5-5-5-|-5-5-5-5-|-5-5-5-5-|-11-11-11-11-|
|-5-5-5-5-|-5-5-5-5-|-5-5-5-5-|-11-11-11-11-|

|---------|---------|---------|---------|
|---------|---------|---------|---------|
|---------|---------|---------|---------|
|-9-9-9-9-|-9-9-9-9-|-9-9-9-9-|-7-7-7-7-|
|-9-9-9-9-|-9-9-9-9-|-9-9-9-9-|-7-7-7-7-|
|-9-9-9-9-|-9-9-9-9-|-9-9-9-9-|-7-7-7-7-|

|---------|---------|---------|-------------|
|---------|---------|---------|-------------|
|---------|---------|---------|-------------|
|-5-5-5-5-|-5-5-5-5-|-5-5-5-5-|-11-11-11-11-|
|-5-5-5-5-|-5-5-5-5-|-5-5-5-5-|-11-11-11-11-|
|-5-5-5-5-|-5-5-5-5-|-5-5-5-5-|-11-11-11-11-|

|---------|---------|---------|---------|-----|
|---------|---------|---------|---------|-----|
|---------|---------|---------|---------|-----|
|-9-9-9-9-|-9-9-9-9-|-9-9-7-7-|-7-7-7-7-|-5---|
|-9-9-9-9-|-9-9-9-9-|-9-9-7-7-|-7-7-7-7-|-5---|
|-9-9-9-9-|-9-9-9-9-|-9-9-7-7-|-7-7-7-7-|-5---|



BRIDGE

|---------|---------|---------|---------|
|---------|---------|---------|---------|
|---7-8-7-|---7-8-7-|---7-8-7-|---7-8-7-|
|-5-------|---------|-5-------|---------|
|---------|---------|---------|---------|
|---------|---------|---------|---------|

|---|------------------3---------|
|---|--------------------6-3---3-|
|---|---8-7------------------5---|
|---|-5-----8-7-5-5-3------------|
|-5-|----------------------------|
|---|----------------------------|

|--------------------------------|
|------------------3-------3---3-|
|---8-7--------------5-3-5---5---|
|-5-----8-7-5-5-3----------------|
|--------------------------------|
|--------------------------------|

|------------------3---------|
|--------------------6-3---3-|
|---8-7------------------5---|
|-5-----8-7-5-5-3------------|
|----------------------------|
|----------------------------|

|--------------------------------|
|------------------3-------3---3-|
|---8-7--------------5-3-5---5---|
|-5-----8-7-5-5-3----------------|
|--------------------------------|
|--------------------------------|


CHORUS 3

|---------|---------|---------|-------------|
|---------|---------|---------|-------------|
|---------|---------|---------|-------------|
|-5-5-5-5-|-5-5-5-5-|-5-5-5-5-|-11-11-11-11-|
|-5-5-5-5-|-5-5-5-5-|-5-5-5-5-|-11-11-11-11-|
|-5-5-5-5-|-5-5-5-5-|-5-5-5-5-|-11-11-11-11-|

|---------|---------|---------|---------|
|---------|---------|---------|---------|
|---------|---------|---------|---------|
|-9-9-9-9-|-9-9-9-9-|-9-9-9-9-|-7-7-7-7-|
|-9-9-9-9-|-9-9-9-9-|-9-9-9-9-|-7-7-7-7-|
|-9-9-9-9-|-9-9-9-9-|-9-9-9-9-|-7-7-7-7-|


|---------|---------|---------|-------------|
|---------|---------|---------|-------------|
|---------|---------|---------|-------------|
|-5-5-5-5-|-5-5-5-5-|-5-5-5-5-|-11-11-11-11-|
|-5-5-5-5-|-5-5-5-5-|-5-5-5-5-|-11-11-11-11-|
|-5-5-5-5-|-5-5-5-5-|-5-5-5-5-|-11-11-11-11-|

|---------|---------|---------|---------|
|---------|---------|---------|---------|
|---------|---------|---------|---------|
|-9-9-9-9-|-9-9-9-9-|-9-9-9-9-|-7-7-7-7-|
|-9-9-9-9-|-9-9-9-9-|-9-9-9-9-|-7-7-7-7-|
|-9-9-9-9-|-9-9-9-9-|-9-9-9-9-|-7-7-7-7-|

|---------|---------|---------|-------------|
|---------|---------|---------|-------------|
|---------|---------|---------|-------------|
|-5-5-5-5-|-5-5-5-5-|-5-5-5-5-|-11-11-11-11-|
|-5-5-5-5-|-5-5-5-5-|-5-5-5-5-|-11-11-11-11-|
|-5-5-5-5-|-5-5-5-5-|-5-5-5-5-|-11-11-11-11-|

|---------|---------|---------|---------|
|---------|---------|---------|---------|
|---------|---------|---------|---------|
|-9-9-9-9-|-9-9-9-9-|-9-9-9-9-|-7-7-7-7-|
|-9-9-9-9-|-9-9-9-9-|-9-9-9-9-|-7-7-7-7-|
|-9-9-9-9-|-9-9-9-9-|-9-9-9-9-|-7-7-7-7-|


OUTRO
guitar 1

|---------|
|---------|
|---------|
|-5-------|
|-5-------|
|-5-------|

guitar 2

|---------|---------|---------|---------|
|---------|---------|---------|---------|
|---7-8-7-|---7-8-7-|---7-8-7-|---7-8-7-|
|-5-------|---------|-5-------|---------|
|---------|---------|---------|---------|
|---------|---------|---------|---------|
            
Submit corrections

comments powered by Disqus
↑ Back to top | Ill Nino Tabs for Cleansing. Lyrics for acoustic guitar and electric guitar. 1 Tablatures and chords are parodies/interpretations of the original songs. You may use it for private study, scholarship, research or language learning purposes only