» » »

Ill Nino, Cleansing Bass tabs (ver.1)

Artists:  A B C D E F G H I J K L M N O P Q R S T U V W X Y Z # 

Cleansing Bass tabs (ver.1)

Ill Nino Tabs
 Rating:
4/5 (4 votes)
Cleansing lessons Tabs too difficult? Try these video lessons and learn fast
1
                Band- Ill Nino
Song- Cleansing

Main Riff (0:19)
F:-------------------------------------------------------|
C:-------------------------------------------------------|
G:-------------------------------------------------------|
C:-0--0-0----0—6-0—6-0-6----6-0—0-6-0—6—0----------------|

F:------------------------------------------------------------|
C:------------------------------------------------------------|
G:------------------------------------------------------------|
C:--6—0-0—6—0—6—0-6----------0—6—0-6-0—6----------------------|

F:------------------------------------------------------------|
C:------------------------------------------------------------|
G:------------------------------------------------------------|
C:--6---0—0—6-0—6—0—6----0---6—0—6—0—6------------------------|

F:-------------------------------------------------------------|
C:-------------------------------------------------------------|
G:-------------------------------------------------------------|
C:-- 6---0—0—6-0—6—0—6----0---6--------0---0-0-----------------|

1ST Verse (0:38)

F:-------------------------------------------------------  X 3-|
C:-------------------------------------------------------------|
G:-------------------------------------------------------------|
C:0---0-0----------------6—0—6-0—6----0----0-0-----------------|

(Play this after the third time)
F:-----------|
C:-----------|
G:-----------|
C:---0--0-0--|

Chorus (0:59)

F:--------------|
C:--------------|
G:--------------|
C:-6~-----------|

F:-------------------------------------| X 4 (EXCEPT THE 6~)
C:-------------------------------------|
G:---3--3—3—1(13X)---------------------|
C: 5(13X)----------------6—6—6---------|

Main Riff (1:28)
F:-------------------------------------------------------|
C:-------------------------------------------------------|
G:-------------------------------------------------------|
C:-0--0-0----0—6-0—6-0-6----6-0—0-6-0—6—0----------------|

F:------------------------------------------------------------|
C:------------------------------------------------------------|
G:------------------------------------------------------------|
C:--6—0-0—6—0—6—0-6----------0—6—0-6-0—6----------------------|

F:------------------------------------------------------------|
C:------------------------------------------------------------|
G:------------------------------------------------------------|
C:--6---0—0—6-0—6—0—6----0---6—0—6—0—6------------------------|

F:-------------------------------------------------------------|
C:-------------------------------------------------------------|
G:-------------------------------------------------------------|
C:-- 6---0—0—6-0—6—0—6----0---6--------0---0-0-----------------|

2ND Verse (1:40)

F:-------------------------------------------------------  X 3-|
C:-------------------------------------------------------------|
G:-------------------------------------------------------------|
C:0---0-0----------------6—0—6-0—6----0----0-0-----------------|

(Play this after the third time)
F:-----------|
C:-----------|
G:-----------|
C:---0--0-0--|

Chorus (2:05)

F:--------------|
C:--------------|
G:--------------|
C:-6~-----------|

F:-------------------------------------| X 4 (EXCEPT THE 6~)
C:-------------------------------------|
G:---3--3—3—1(13X)---------------------|
C: 5(13X)----------------6—6—6---------|

Interlude:

F:-------------| 8X
C:-------------|
G:---1---------|
C:-5----5---3--|
Chorus (3:05)

F:--------------|
C:--------------|
G:--------------|
C:-6~-----------|

F:-------------------------------------| X 4 (EXCEPT THE 6~)
C:-------------------------------------|
G:---3--3—3—1(13X)---------------------|
C: 5(13X)----------------6—6—6---------|

Outro:

F:----
C:----
G:----
C:-5~
            
Submit corrections

comments powered by Disqus
↑ Back to top | Ill Nino Bass for Cleansing. Lyrics for acoustic guitar and electric guitar. 1 Tablatures and chords are parodies/interpretations of the original songs. You may use it for private study, scholarship, research or language learning purposes only