» » »

Ikimono Gakari, Blue Bird Tabs (ver.3)

Artists:  A B C D E F G H I J K L M N O P Q R S T U V W X Y Z # 

Blue Bird Tabs (ver.3)

Ikimono Gakari Tabs
Rating:
3/5 (2 votes)
Blue Bird lessons Tabs too difficult? Try these video lessons and learn fast
                (This tab is only for the lead guitar)

Ikimono Gakari

Blue Bird

Tab made by Lattice

Tuning Standard

Chords:
D: e-2-    C#m: -4-    ---    F#m: -2-    Bm: -2-    E: ---    A: ---
    -3-         -5-    -2-         -2-        -3-       ---       -2-
    -2-         -6- or -1-         -2-        -4-       -1-       -2-
    ---         -6-    -2-         -4-        -4-       -2-       -2-
    ---         -4-    ---         -4-        -2-       -2-       ---  
   E---         -4-    ---         -2-        ---       ---       ---

Intro
D-C#m-F#m
Bm-E-A
D-C#m-F#m
Bm-E-F#m

Fill
e ---------------------------------------------------------------------|
  ------------------------------------------------------------6---7-6--|
  --------------------------------------------------------------6------|
  -6-7-7-6-6-7-7-6-7--------------6-7-7-6-6-7-7-7---7---7---7----------|
  -------------------7-9-7---9-11-----------------9---9---9------------|
E -------------------------9-------------------------------------------|

e ---------------------------------------------------------------------|
  -10---10-------10-------10---9------10---10---9---10-------10--------|
  ----9----9-8-8----8-7-7----7---7-9-----9----9---9----9-7-7----7------|
  ---------------------------------------------------------------------|
  ---------------------------------------------------------------------|
E ---------------------------------------------------------------------|


Verse
e ---------------------------------------------------10-9-9-9----------|
  --9--------7-------9-------12--------------------9-------------------|
  --x-(x16)--x-(x4)--x-(x4)--x—(x16)------10-11-13---------------------|
  --6--------4-------6-------9-------9-11------------------------------|
  --7--------5-------7-------10----------------------------------------|
E ---------------------------------------------------------------------|


Chorus
e --------------------------------------------------------------16----17-16---|
  -----------------------------14----------------------------------17---------|
  -----------------------13-14------------------------------------------------|
  -----11----12-11----14-------------11----12-11-11/16------------------------|
  --------12----------------------------12-------------19-17-16---------------|
E --14-------------14-------------14------------------------------------------|


e --------------------------------------------------------------------------------|
  -----------------------------14-------------------------------------------------|
  -----------------------13-14----------------------------------------------------|
  -----11----12-11----14-------------11----12-11-------------14-12-11-14----14-12-|
  --------12----------------------------12----------11-12-14----------------------|
E --14-------------14-------------14-------------14----------------------14-------|


e ----------------------------------------|
  ----------------12-14-12/17-------------|
  -------11-14-13-------------------------|
  -11-14----------------------------------|
  ----------------------------------------|
E ----------------------------------------|


Fill
e -----------------------------------------------------------------------|
  --------------------------------10---10-------10-------10---9-----10---|
  -----------------------------------9----9-8-8----8-7-7----7---7-9----9-|
  -6-7-7-6-6-7-7-6-7-----------------------------------------------------|
  -------------------7-9-7---9-11----------------------------------------|
E -------------------------9---------------------------------------------|


e -----------------------------|
  -10---9---10-------10--------|
  ----9---9----9-7-7----7------|
  -----------------------------|
  -----------------------------|
E -----------------------------|


Verse
e ---------------------------------------------------10-9-9-9----------|
  --9--------7-------9-------12--------------------9-------------------|
  --x-(x16)--x-(x4)--x-(x4)--x—(x16)------10-11-13---------------------|
  --6--------4-------6-------9-------9-11------------------------------|
  --7--------5-------7-------10----------------------------------------|
E ---------------------------------------------------------------------|


Chorus
e --------------------------------------------------------------16----17-16---|
  -----------------------------14----------------------------------17---------|
  -----------------------13-14------------------------------------------------|
  -----11----12-11----14-------------11----12-11-11/16------------------------|
  --------12----------------------------12-------------19-17-16---------------|
E --14-------------14-------------14------------------------------------------|


e --------------------------------------------------------------------------------|
  -----------------------------14-------------------------------------------------|
  -----------------------13-14----------------------------------------------------|
  -----11----12-11----14-------------11----12-11-------------14-12-11-14----14-12-|
  --------12----------------------------12----------11-12-14----------------------|
E --14-------------14-------------14-------------14----------------------14-------|


e ------------|
  ------------|
  ------------|
  -11-14------|
  ------------|
E ------------|

Solo

e ----12-----------------12---------------------------------------------|
  -13----13-12--------13----13-12---------------------------------------|
  -------------14-----------------14----14-14---------------------------|
  ----------------15-----------------15-------11-9-------------14-14-14-|
  -------------------------------------------------12----12-12----------|
E ----------------------------------------------------13----------------|

e ----------------------------------------------12-12-12-12-12----|
  ----------------------------------------------------------------|
  -------------12-14-12----12-14-14-14-14-14----------------------|
  -12-14-14-15----------15-------------------15-------------------|
  ----------------------------------------------------------------|
E ----------------------------------------------------------------|

(Hold on while instrumental…)

e -----------------10-9-9-9----------|
  ---------------9-------------------|
  ------10-11-13---------------------|
  -9-11------------------------------|
  -----------------------------------|
E -----------------------------------|


Chorus
e --------------------------------------------------------------16----17-16---|
  -----------------------------14----------------------------------17---------|
  -----------------------13-14------------------------------------------------|
  -----11----12-11----14-------------11----12-11-11/16------------------------|
  --------12----------------------------12-------------19-17-16---------------|
E --14-------------14-------------14------------------------------------------|


e --------------------------------------------------------------------------------|
  -----------------------------14-------------------------------------------------|
  -----------------------13-14----------------------------------------------------|
  -----11----12-11----14-------------11----12-11-------------14-12-11-14----14-12-|
  --------12----------------------------12----------11-12-14----------------------|
E --14-------------14-------------14-------------14----------------------14-------|


e ----------------------------------------|
  ----------------12-14-12/17-------------|
  -------11-14-13-------------------------|
  -11-14----------------------------------|
  ----------------------------------------|
E ----------------------------------------|


Outro

e ----------------------------------------------|
  -------------------------------6---7-6-9-11---|
  ---------------------------------6------------|
  --6-7-7-6-6-7-7--7---7---7---7----------------|
  -------------------9---9---9------------------|
E ----------------------------------------------|

This was my first tab so don't be too cruel to me :P.
            

comments powered by Disqus
↑ Back to top | Ikimono Gakari Tabs for Blue Bird. Lyrics for acoustic guitar and electric guitar. Tablatures and chords are parodies/interpretations of the original songs. You may use it for private study, scholarship, research or language learning purposes only