>
 >
Blue Bird 1

Blue Bird 1 Guitar Tabs

Ikimono Gakari - Blue Bird 1 chords, tabs, tablatures, lyrics

Guitar lessons | Add/correct | Request | Top 50 tabs Artists:  A B C D E F G H I J K L M N O P Q R S T U V W X Y Z 0-9

Blue Bird 1 Guitar Tabs – Ikimono Gakari

CD, Sheet music, Poster

Do you like Blue Bird 1? Share with your friends now
Bass TabsTabsTabs v2Tabs v3Tabs v4
Intro:

      Dmaj7 - C-7  F#7
Habataitara
         B-7  F-7 - Am
modorenai to itte
       Dmaj7 - C-7  F#7
Mezashita no wa
         B-7  F-7 - Am
aoi aoi ano sora

--------------------------------------------------------------------------------|
--------------------------------------------------------------------------------|
--------------------------------------------------------------------------------|
--7----7---7--6----6---6----6----6---7-----------------------------------------|
--------------------------------------------------------------------------------|
--------------------------------------------------------------------------------|


---------------------------------------------------------------------------------------|
---------------------------------------------------------------------------------------|
----------------------------------------7---7/11---11----------------------------------|
---7-------7---6---------7---6---------------------------------------------------------|
-------------------9-------------9-----------------------------------------------------|
---------------------------------------------------------------------------------------|


Verse:

-9--10----9--10-------10---9----------------------|
--9----9---9----9---9----9---9--------------------|
------------------7-------------------------------|
--------------------------------------------------|
--------------------------------------------------|
--------------------------------------------------|

-9--10----9--10-------10---9----------------------|
--9----9---9----9---9----9------------------------|
------------------7-------------------------------|
--------------------------------------------------|
--------------------------------------------------|
--------------------------------------------------|

Bridge:

  F#     E     F#     A
--------------------------------------------------|
--------------------------------------------------|
--11-----9-----11-----14--------------------------|
--11-----9-----11-----14--------------------------|
---9-----7------9-----12--------------------------|
--------------------------------------------------|

              F#                             E    F#
Michi naru sekai no yume kara mezamete
                     A
Kono hane wo hiroge tobi datsu

-----------------------------10--9--9--9--9----------------------------------------------|
-------------------9--10-----------------------------------------------------------------|
---------10--11--------------------------------------------------------------------------|
-9--11-----------------------------------------------------------------------------------|
-----------------------------------------------------------------------------------------|
-----------------------------------------------------------------------------------------|

Chorus:

---------------------------------------------------9--------------------------|
-----------------------------------------------10-----------------------------|
------------------------------------9------11---------------------------------|
---------11--9-12-11----------------------------------------------------------|
------------------------------------------------------------------------------|
-0/12---------------------0/12------------------------------------------------|

-------------------------------------------------13/15--13--16--15--------------------|
--------------------------------------------------------------------------------------|
--------------------------------------------------------------------------------------|
---------11--9-12-11---11/14--15-14-12------------------------------------------------|
--------------------------------------------------------------------------------------|
-0/12---------------------------------------------------------------------------------|


---------------------------------------------------9-----------------|
-----------------------------------------------10--------------------|
------------------------------------9------11------------------------|
---------11--9-12-11-------------------------------------------------|
---------------------------------------------------------------------|
-0/12---------------------0/12---------------------------------------|

----------------------------------------------------------|
----------------------------------------------------------|
---------------------------------------------9/6-6-6/9-9--|
---------11--9-12-11---------------------12---------------|
------------------------------------9--12-----------------|
-0/12---------------------0/12---12-----------------------|

-------------------------------------------7---9--9/12--12--|
-----------------------------7---10---9---------------------|
--------9/6-6-6/9-9-----------------------------------------|
------------------------------------------------------------|
------------------------------------------------------------|
-0/12-------------------------------------------------------|

Outro:

----------------------------------------------------------------------------------|
----------------------------------------------------------------------------------|
-------------------------------------------------------------------------------.--|
--7----7---7--6----6---6----6----6---7-------------------------------------------|
----------------------------------------------------------------------------------|
----------------------------------------------------------------------------------|

---------------------------------------------------------------------|
---------------------------------------------------------------------|
----------------------------------------7---7/11---11-----12-----15--|
---7-------7---6---------7---6---------------------------------------|
-------------------9-------------9-----------------------------------|
---------------------------------------------------------------------|





Comments


Popular Ikimono Gakari tabs & chords
Kaze Ga Fuiteiru Chords
Kimagakure Romantic Chords
Kimi To Auita Kisetsu Chords
Nokori Kaze Chords
Shiori Diary Chords
Toki Wo Kakeru Shoujo Chords
Ai Kotoba Ukulele
Arigatou Ukulele
Nostalgia Ukulele
Tsuki To Atashi To Reizouko Ukulele


Song lyrics



↑ Back to top | Tablatures and chords are parodies/interpretations of the original songs. You may use it for private study, scholarship, research or language learning purposes only
© 2014 AZChords.com Contact us | Privacy policy | DMCA | Add/correct tabs | Request tabs | Top 50 tabs