» » »

Ikimono Gakari, Blue Bird Tabs (ver.2)

Artists:  A B C D E F G H I J K L M N O P Q R S T U V W X Y Z # 

Blue Bird Tabs (ver.2)

Ikimono Gakari Tabs
Rating:
1/5 (2 votes)
Blue Bird lessons Tabs too difficult? Try these video lessons and learn fast
                Intro:

      Dmaj7 - C-7 – F#7
Habataitara
         B-7 – F-7 - Am
modorenai to itte
       Dmaj7 - C-7 – F#7
Mezash*ta no wa
         B-7 – F-7 - Am
aoi aoi ano sora

--------------------------------------------------------------------------------|
--------------------------------------------------------------------------------|
--------------------------------------------------------------------------------|
--7----7---7--—6----6---6----6----6---7-----------------------------------------|
--------------------------------------------------------------------------------|
--------------------------------------------------------------------------------|


---------------------------------------------------------------------------------------|
---------------------------------------------------------------------------------------|
----------------------------------------7---7/11---11----------------------------------|
---7-------7---6---------7---6---------------------------------------------------------|
-------------------9-------------9-----------------------------------------------------|
---------------------------------------------------------------------------------------|


Verse:

-9--10----9--10-------10---9----------------------|
--9----9---9----9---9----9---9--------------------|
------------------7-------------------------------|
--------------------------------------------------|
--------------------------------------------------|
--------------------------------------------------|

-9--10----9--10-------10---9----------------------|
--9----9---9----9---9----9------------------------|
------------------7-------------------------------|
--------------------------------------------------|
--------------------------------------------------|
--------------------------------------------------|

Bridge:

  F#     E     F#     A
--------------------------------------------------|
--------------------------------------------------|
--11-----9-----11-----14--------------------------|
--11-----9-----11-----14--------------------------|
---9-----7------9-----12--------------------------|
--------------------------------------------------|

              F#                             E    F#
Michi naru sekai no yume kara mezamete
                     A
Kono hane wo hiroge tobi datsu

-----------------------------10--9--9--9--9----------------------------------------------|
-------------------9--10-----------------------------------------------------------------|
---------10--11--------------------------------------------------------------------------|
-9--11-----------------------------------------------------------------------------------|
-----------------------------------------------------------------------------------------|
-----------------------------------------------------------------------------------------|

Chorus:

---------------------------------------------------9--------------------------|
-----------------------------------------------10-----------------------------|
------------------------------------9------11---------------------------------|
---------11--9-12-11----------------------------------------------------------|
------------------------------------------------------------------------------|
-0/12---------------------0/12------------------------------------------------|

-------------------------------------------------13/15--13--16--15--------------------|
--------------------------------------------------------------------------------------|
--------------------------------------------------------------------------------------|
---------11--9-12-11---11/14--15-14-12------------------------------------------------|
--------------------------------------------------------------------------------------|
-0/12---------------------------------------------------------------------------------|


---------------------------------------------------9-----------------|
-----------------------------------------------10--------------------|
------------------------------------9------11------------------------|
---------11--9-12-11-------------------------------------------------|
---------------------------------------------------------------------|
-0/12---------------------0/12---------------------------------------|

----------------------------------------------------------|
----------------------------------------------------------|
---------------------------------------------9/6-6-6/9-9--|
---------11--9-12-11---------------------12---------------|
------------------------------------9--12-----------------|
-0/12---------------------0/12---12-----------------------|

-------------------------------------------7---9--9/12--12--|
-----------------------------7---10---9---------------------|
--------9/6-6-6/9-9-----------------------------------------|
------------------------------------------------------------|
------------------------------------------------------------|
-0/12-------------------------------------------------------|

Outro:

----------------------------------------------------------------------------------|
----------------------------------------------------------------------------------|
-------------------------------------------------------------------------------.--|
--7----7---7--—6----6---6----6----6---7-------------------------------------------|
----------------------------------------------------------------------------------|
----------------------------------------------------------------------------------|

---------------------------------------------------------------------|
---------------------------------------------------------------------|
----------------------------------------7---7/11---11-----12-----15--|
---7-------7---6---------7---6---------------------------------------|
-------------------9-------------9-----------------------------------|
---------------------------------------------------------------------|
            
Submit corrections

comments powered by Disqus
↑ Back to top | Ikimono Gakari Tabs for Blue Bird. Lyrics for acoustic guitar and electric guitar. Tablatures and chords are parodies/interpretations of the original songs. You may use it for private study, scholarship, research or language learning purposes only