» » »

Blue Bird Bass tabs (ver.1)

Artists:  A B C D E F G H I J K L M N O P Q R S T U V W X Y Z # 

Blue Bird Bass tabs (ver.1)

Ikimono Gakari
Rating:
5/5 (1 vote)

Hard to play? Try these video lessons and learn fast.
                Intro:

Habataitara…
--------------------------------------------------|
--------------------------------------------------|
-5-4----2----------5-4----2-----------------------|
-----2----1-5----------2----1-5----5-5-5-5-5-5----|

--------------------------------------------------|
--------------------------------------------------|
--------------------------------------------------|
-5-5-5-5-5---3-3-3-3-3—--1-1-1-1-1---3-3-3-3-3----|

Verso:

Kanashimi wa mada…
--------------------------------------------------|
--------------------------------------------------|
-------7--------5--------2--3-2-5-----------------|
-3--3-----3--3-----3--3---------------------------|

Anata e to idaku…
--------------------------------------------------|
--------------------------------------------------|
-------7--------5-----------2---------------------|
-3--3-----3--3-----3--3--2------------------------|

Bridge:

Michi naru…
---------------------------------------------------------|
---------------------------------------------------------|
-5-5-5-5-5--3-3-3-3-3--1-1-1-1-1--3-3-3-3-3--------------|
---------------------------------------------------------|

Chorus:

Habataitara…
-------------------------------------------------------|
-------------------------------------------------------|
------------7-7-7-7-7---9-9-9-9-9----------------------|
-8-8-8-8-8---------------------------------------------|

            Aoi aoi ano sora…
---------------------------------------------------------|
---------------------------------------------------------|
------------5-5-5-5-5---9-9-9-9-9------------------------|
-8-8-8-8-8-----------------------------------------------|


Tsuki nuketara…
---------------------------------------------------------|
---------------------------------------------------------|
------------7-7-7-7-7---9-9-9-9-9------------------------|
-8-8-8-8-8-----------------------------------------------|

            Aoi aoi ano sora…
---------------------------------------------------------|
---------------------------------------------------------|
------------5-5-5-5-5---9-9-9-9-9------------------------|
-8-8-8-8-8-----------------------------------------------|

Aoi aoi ano sora…
---------------------------------------------------------|
---------------------------------------------------------|
------------5-5-5-5-5---9-9-9-9-9------------------------|
---------------------------------------------------------|

Aoi aoi ano sora…
---------------------------------------------------------|
---------------------------------------------------------|
------------5-5-5-5-5---9-9-9-9-9------------------------|
---------------------------------------------------------|

-------------------------------------------------------|
-------------------------------------------------------|
-------------------------------------------------------|
-5-5-5-5-5---3-3-3-3-3—--1-1-1-1-1---3-3-3-3-3------3--|
            
Hard to play? Try these video lessons and learn fast. | Correct




comments powered by Disqus
↑ Back to top | Tablatures and chords are parodies/interpretations of the original songs. You may use it for private study, scholarship, research or language learning purposes only