» » »

Sharks In Your Mouth Tabs

Artists:  A B C D E F G H I J K L M N O P Q R S T U V W X Y Z # 

Sharks In Your Mouth Tabs

(ver. 1)
I Killed The Prom Queen Tabs
 Rating:
4/5 (11 votes)
    Sharks In Your Mouth lessons Tabs too difficult? Try these video lessons and learn fast
                Who would of known australians can make amazing music!!

Well heres the Sharks In Your Mouth Solo its pretty straight forward, 99.9% right

C#------------------------------------------------------------|
G#------------------------------------------------------------|
E------14-12--------------------------------------------------|
B--12~-------15-14-15-14----12~-12h14p12-11~------------------|
F#-----------------------15-----------------------------------|
B-------------------------------------------------------------|

you can palm mute this if u want, sounds good either way

C#-----------------------------------------------------------------|
G#-----------------------------------------------------------------|
E---------12-------------14--------------15-------------17---------|
B-121415----1514--141517----1715--151719----1915-171920----20-19---|
F#-----------------------------------------------------------------|
B------------------------------------------------------------------|

theres a few things that work if u cant play the harmonic
when jona plays it live he skips the harmonic here and goes to the 15b~
and it sounds fine

C#------------------*15b17-----------------13-12-10h12p10--------------|
G#----------------------------15b~-15-11-15---------------13-15b~------|
E--18~-18h20p18-17~----------------------------------------------------|
B----------------------------------------------------------------------|
F#---------------------------------------------------------------------|
B----------------------------------------------------------------------|

play each 4 times (hints the X4)

C#--T13p10p6--X4--T17p10p6--X4--T17p13p10--X4--T15p12p8--X4---|
G#------------------------------------------------------------|
E-------------------------------------------------------------|
B-------------------------------------------------------------|
F#------------------------------------------------------------|
B-------------------------------------------------------------|

im not sure if you play eat one of these 2 or 3 times

C#--10h13p10-10h13p10-------------------12h15p12-12h15p12-----|
G#--------------------10h13p10-10h13p10-------------------13~-|
E-------------------------------------------------------------|
B-------------------------------------------------------------|
F#------------------------------------------------------------|
B-------------------------------------------------------------|

C#--------------------------------------17-------------------------|
G#--15-12-15-17-15-17-18-17-18-20-18-20----20-18-20-18-17-18-17----|
E---------------------------------------------------------------17-|
B------------------------------------------------------------------|
F#-----------------------------------------------------------------|
B------------------------------------------------------------------|

theres a harmony part to this, im too lazy though

C#--17b~--18b~--19b~--------------------|
G#--------------------------------------|
E---------------------------------------|
B---------------------------------------|
F#--------------------------------------|
B---------------------------------------|

well theres the solo, rate it and leave me some comments, and if you use this in your 
tab please dont give yourself the credit, thanks and have fun
            
Submit corrections

↑ Back to top | I Killed The Prom Queen Tabs for Sharks In Your Mouth. Lyrics for acoustic guitar and electric guitar. Tablatures and chords are parodies/interpretations of the original songs. You may use it for private study, scholarship, research or language learning purposes only