>
 >
Sharks In Your Mouth

Sharks In Your Mouth Guitar Tabs

I Killed The Prom Queen - Sharks In Your Mouth chords, tabs, tablatures, lyrics

Guitar lessons | Add/correct | Request | Top 50 tabs Artists:  A B C D E F G H I J K L M N O P Q R S T U V W X Y Z 0-9

Sharks In Your Mouth Guitar Tabs – I Killed The Prom Queen

CD, Sheet music, Poster

Do you like Sharks In Your Mouth? Share with your friends now
Bass TabsTabsTabs v2Tabs v3Tabs v4Tabs v5Tabs v6
By I Killed The Prom Queen
Album:Music for the Recently Deceased
Tuning:B F# B E G# C#

Gtr1
||---------------------------------------------------|
||o--------------------------------------------------|
||---------------------------------------------------|
||--7----------------------7---5---8-----------------|
||o--------------------------------------------------|
||---------------------------------------------------|
|
|Gtr2
||---------------------------------------------------|
||---------------------------------------------------|
||---------------------------------------------------|
||---------------------------------------------------|
||-5----------------------8---7---10-----------------|
||---------------------------------------------------|
|
|Gtr3
||---------------------------------------------------|
||---------------------------------------------------|
||---------------------------------------------------|
||---------------------------------------------------|
||-000--000--000-000-000--000--000-000---------------|
||-000--000--000-000-000--000--000-000---------------|
   ...  ...  ... ... ...  ...  ... ...

Gtr1
||---------------------------------------------------|
||---------------------------------------------------|
||---------------------------------------------------|
||-7------------------2-------------3-2-----0--------|
||---------------------------------------------------|
||---------------------------------------------------|
|
|Gtr2
||---------------------------------------------------|
||---------------------------------------------------|
||---------------------------------------------------|
||---------------------------------------------------|
||-8------------------3-------------5-3-----0--------|
||---------------------------------------------------|
|
|Gtr3
||---------------------------------------------------||
||--------------------------------------------------o||
||---------------------------------------------------||
||---------------------------------------------------||
||-333--333--333-333-101010--101010--101010-101010--o||
||-333--333--333-333-101010--101010--101010-101010---||
   ...  ...  ... ... ......  ......  ...... ......

Gtr1
||-----------------------------------||
||o---------------------------------o||
||-----------------------------------||
||-----------------------------------||
||o-----7-8-5-8-----7-8-5-8---------o||
||--000---------000---------000-000--||
|   ...         ...         ... ...
|
|Gtr2
||------------------------------------||
||o----------------------------------o||
||------------------------------------||
||------------------------------------||
||o-000---------000---------000-000--o||
||--000---------000---------000-000---||
    ...         ...         ... ...

Gtr1
||------------------------------------||
||------------------------------------||
||------------------------------------||
||------------------------------------||
||------7-8-5-8-----7-8-5-8-----------||
||--333---------333---------333-333---||
|   ...         ...         ... ...
|
|Gtr2
||------------------------------------||
||------------------------------------||
||------------------------------------||
||------------------------------------||
||--333---------333---------333-333---||
||--333---------333---------333-333---||
    ...         ...         ... ...

Gtr1
||------------------------------------------||
||------------------------------------------||
||------------------------------------------||
||------------------------------------------||
||---------7-8-5-8--------7-8-5-8-10-8-7-8--||
||--101010---------101010-------------------||
|   ......         ......
|
|Gtr2
||------------------------------------------||
||------------------------------------------||
||------------------------------------------||
||------------------------------------------||
||--101010---------101010-7-8-5-8-10-8-7-8--||
||--101010---------101010-------------------||
    ......         ......

Gtr1 + 2
||-----------------------------------||
||o----------------------------------||
||-----------------------------------||
||-----------------------------------||
||o-----7-8-5-8-----7-8-5-8----------||
||--000---------000---------000-000--||
    ...         ...         ... ...

||-----------------------------------||
||-----------------------------------||
||-----------------------------------||
||-----------------------------------||
||------7-8-5-8-----7-8-5-8----------||
||--000---------000---------000-000--||
    ...         ...         ... ...

||------------------------------------||
||------------------------------------||
||------------------------------------||
||------------------------------------||
||------7-8-5-8-----7-8-5-8-----------||
||--333---------333---------333-333---||
    ...         ...         ... ...

||-------------------------------------------||
||------------------------------------------o||
||-------------------------------------------||
||-------------------------------------------||
||---------7-8-5-8--------7-8-5-8-10-8-7-8--o||
||--101010---------101010--------------------||
    ......         ......

Gtr1
||-----------------------------------||
||o----------------------------------||
||-----------------------------------||
||------5-7-3-7-----5-7-3-7----------||
||o----------------------------------||
||--0-0---------0-0---------000-000--||
|   . .         . .         ... ...
|
|Gtr2
||-----------------------------------||
||o----------------------------------||
||-----------------------------------||
||-----------------------------------||
||o-----7-8-5-8-----7-8-5-8----------||
||--0 0---------0-0---------000-000--||
    . .         . .         ... ...

Gtr1
||-----------------------------------||
||-----------------------------------||
||-----------------------------------||
||------5-7-3-7-----5-7-3-7----------||
||-----------------------------------||
||--0-0---------0-0---------000-000--||
|   . .         . .         ... ...
|
|Gtr2
||-----------------------------------||
||-----------------------------------||
||-----------------------------------||
||-----------------------------------||
||------7-8-5-8-----7-8-5-8----------||
||--0 0---------0-0---------000-000--||
    . .         . .         ... ...

Gtr1
||-----------------------------------||
||-----------------------------------||
||-----------------------------------||
||------5-7-3-7-----5-7-3-7----------||
||-----------------------------------||
||--3-3---------3-3---------333-333--||
|   . .         . .         ... ...
|
|Gtr2
||-----------------------------------||
||-----------------------------------||
||-----------------------------------||
||-----------------------------------||
||------7-8-5-8-----7-8-5-8----------||
||--3-3---------3-3---------333-333--||
    . .         . .         ... ...

Gtr1
||----------------------------------------||
||---------------------------------------o||
||----------------------------------------||
||--------5-7-3-7-------5-7-3-7-8-7-5-7---||
||---------------------------------------o||
||--10-10---------10-10-------------------||
|   .. ..         .. ..
|
|Gtr2
||-----------------------------------------||
||----------------------------------------o||
||-----------------------------------------||
||-----------------------------------------||
||--------7-8-5-8-------7-8-5-8-10-8-7-8--o||
||--10-10---------10-10--------------------||
    .. ..         .. ..

Gtr1 + 2
||---------------------------------------------------------------||
||o--------------------------------------------------------------||
||---------------------------------------------------------------||
||----------------------------------------888888-777777-555555---||
||o--555555555555555-777777-888888-------------------------------||
||---------------------------------888888------------------------||

||----------------------------------------|-----------------------------||
||o---------------------------------------|----------------------------o||
||----------------------------------------|-----------------------------||
||----------------------------------------|-101010101010-888888-777777--||
||o------------------777777-888888--------|----------------------------o||
||---555555555555555---------------777777-|-----------------------------||

2.
||-----------------------------------||
||-----------------------------------||
||-----------------------------------||
||--101010101010-888888-77777---(3)--||
||-----------------------------------||
||-----------------------------------||

Gtr1
||------------------------------------------||
||o-----------------------------------------||
||------------------------------------------||
||-----------------------------8-7-5--------||
||o--5-7-8-5-10-8-7-5--5-7-8-5-------8------||
||------------------------------------------||
|
|Gtr2
||------------------------------------------||
||o-----------------------------------------||
||------------------------------------------||
||---0~----------------5~-------------------||
||o--0~----------------5~-------------------||
||---0~----------------5~-------------------||

Gtr1
||------------------------------------------||
||------------------------------------------||
||------------------------------------------||
||------------------------------------------||
||---5-7-8-5-10-8-7-5--5-7-8-5-4-5-7-5------||
||------------------------------------------||
|
|Gtr2
||------------------------------------------||
||-----------------------------------------o||
||------------------------------------------||
||---8~----------------7~-------------------||
||---8~----------------7~------------------o||
||---8~----------------7~-------------------||

Gtr1
||---------------------------------------||
||o--------------------------------------||
||----------------------------7-5-3------||
||---3-5-7-3-8-7-5-3--3-5-7-3-------7----||
||o--------------------------------------||
||---------------------------------------||
|    . . . .          . . . .
|
|Gtr2
||---------------------------------------||
||o--------------------------------------||
||---------------------------------------||
||-----------------------------8-7-5-----||
||o--5-7-8-5-10-8-7-5--5-7-8-5-------8---||
||---------------------------------------||
|    . . . .           . . . .
|
|Gtr3
||-------------------------------------------||
||o------------------------------------------||
||-------------------------------------------||
||-------------------------------------------||
||o--0-0-0-0-0-0-0-0--5-5-5-5-5-5-5-5-5-5-5--||
||---0-0-0-0-0-0-0-0--5-5-5-5-5-5-5-5-5-5-5--||
     . . . . . . . .  . . . . . . . . . . .

Gtr1
||---------------------------------------||
||--------------------------------------o||
||---------------------------------------||
||---3-5-7-3-8-7-5-3--3-5-7-3-2-3-5-3----||
||--------------------------------------o||
||---------------------------------------||
|    . . . .          . . . . . . . .
|
|Gtr2
||----------------------------------------||
||---------------------------------------o||
||----------------------------------------||
||----------------------------------------||
||---5-7-8-5-10-8-7-5--5-7-8-5-4-5-7-5---o||
||----------------------------------------||
|    . . . .           . . . . . . . .
|
|Gtr3
||-------------------------------------------||
||------------------------------------------o||
||-------------------------------------------||
||-------------------------------------------||
||--8-8-8-8-8-8-8-8--7-7-7-7-7-7-7-7-7-7-7--o||
||--8-8-8-8-8-8-8-8--7-7-7-7-7-7-7-7-7-7-7---||
    . . . . . . . . . . . . . . . . . . . .

Gtr1
||---------------------------------||
||---------------------------------||
||---------------------------------||
||---------------------------------||
||-0--7-8-5-8-----7-8-5-8----------||
||-0----------000---------000-000--||
|  .          ...         ... ...
|
|Gtr2
||---------------------------------||
||---------------------------------||
||---------------------------------||
||---------------------------------||
||-0---------------------(4)-------||
|--0-------------------------------||
   .

Gtr1 + 2
||-----------------------------------||
||-----------------------------------||
||-----------------------------------||
||-----------------------------------||
||------7-8-5-8-----7-8-5-8----------||
||--000---------000---------000-000--||
    ...         ...         ... ...

||------------------------------------||
||------------------------------------||
||------------------------------------||
||------------------------------------||
||------7-8-5-8-----7-8-5-8-----------||
||--333---------333---------333-333---||
    ...         ...         ... ...

||-------------------------------------------||
||-------------------------------------------||
||-------------------------------------------||
||-------------------------------------------||
||---------7-8-5-8--------7-8-5-8-10-8-7-8---||
||--101010---------101010--------------------||
    ......         ......

||-----------------------------------||
||-----------------------------------||
||-----------------------------------||
||-----------------------------------||
||------7-8-5-8-----7-8-5-8----------||
||--000---------000---------000-000--||
    ...         ...         ... ...

||-----------------------------------||
||-----------------------------------||
||-----------------------------------||
||-----------------------------------||
||------7-8-5-8-----7-8-5-8----------||
||--000---------000---------000-000--||
    ...         ...         ... ...

||------------------------------------||
||------------------------------------||
||------------------------------------||
||------------------------------------||
||------7-8-5-8-----7-8-5-8-----------||
||--333---------333---------333-333---||
    ...         ...         ... ...

||-------------------------------------------||
||-------------------------------------------||
||-------------------------------------------||
||-------------------------------------------||
||---------7-8-5-8--------7-8-5-8-10-8-7-8---||
||--101010---------101010--------------------||
    ......         ......

Gtr1
||-----------------------------------||
||o----------------------------------||
||-----------------------------------||
||------5-7-3-7-----5-7-3-7----------||
||o----------------------------------||
||--0-0---------0-0---------000-000--||
|   . .         . .         ... ...
|
|Gtr2
||-----------------------------------||
||o----------------------------------||
||-----------------------------------||
||-----------------------------------||
||o-----7-8-5-8-----7-8-5-8----------||
||--0 0---------0-0---------000-000--||
    . .         . .         ... ...

Gtr1
||-----------------------------------||
||-----------------------------------||
||-----------------------------------||
||------5-7-3-7-----5-7-3-7----------||
||-----------------------------------||
||--0-0---------0-0---------000-000--||
|   . .         . .         ... ...
|
|Gtr2
||-----------------------------------||
||-----------------------------------||
||-----------------------------------||
||-----------------------------------||
||------7-8-5-8-----7-8-5-8----------||
||--0 0---------0-0---------000-000--||
    . .         . .         ... ...

Gtr1
||-----------------------------------||
||-----------------------------------||
||-----------------------------------||
||------5-7-3-7-----5-7-3-7----------||
||-----------------------------------||
||--3-3---------3-3---------333-333--||
|   . .         . .         ... ...
|
|Gtr2
||-----------------------------------||
||-----------------------------------||
||-----------------------------------||
||-----------------------------------||
||------7-8-5-8-----7-8-5-8----------||
||--3-3---------3-3---------333-333--||
    . .         . .         ... ...

Gtr1
||----------------------------------------||
||---------------------------------------o||
||----------------------------------------||
||--------5-7-3-7-------5-7-3-7-8-7-5-7---||
||---------------------------------------o||
||--10-10---------10-10-------------------||
|   .. ..         .. ..
|
|Gtr2
||-----------------------------------------||
||----------------------------------------o||
||-----------------------------------------||
||-----------------------------------------||
||--------7-8-5-8-------7-8-5-8-10-8-7-8--o||
||--10-10---------10-10--------------------||
    .. ..         .. ..

Gtr1
||----------------------------------||
||----------------------------------||
||----------------------------------||
||----------------------------------||
||-000-000-000-0-000-0-000-000-000--||
||-000-000-000-0-000-0-000-000-000--||
|  ... ... ... . ... . ... ... ...
|
|Gtr2
||----------------------------------||
||----------------------------------||
||----------------------------------||
||-0~-------------------------------||
||-0~-------------------------------||
||-0~-------------------------------||

Gtr1 + 2                             x4
||------------------------------------||
||o----------------------------------o||
||------------------------------------||
||------------------------------------||
||o-000-000-000-0-000-0-000-000-0-0--o||
||--000-000-000-0-000-0-000-000-0-0---||
    ... ... ... . ... . ... ... . .

4.
||---------------------------------||
||---------------------------------||
||---------------------------------||
||---------------------------------||
||--000-000-000-0-000-0-000--------||
||--000-000-000-0-000-0-000--15/---||
    ... ... ... . ... . ...

Gtr1 + 2
||-------------------------------------||
||o-----------------------------------o||
||-------------------------------------||
||-------------------------------------||
||o--000--000--0-0-0-0-0-0--000--000--o||
||---000--000--0-0-0-0-0-0--000--000---||
     ...  ...  . . . . . .  ...  ...

solo
Gtr1
||------------------------------------------------------------------------||
||------------------------------------------------------------------------||
||-----------------14-12-10-9-10-9----------------------------------------||
||-12~-----------------------------10-10/12~-12h14-11~--------------------||
||------------------------------------------------------------------------||
||------------------------------------------------------------------------||
|
|Gtr2
||-----------------------------------------------------------------------||
||-----------------------------------------------------------------------||
||-----------------------------------------------------------------------||
||-----------------------------------------------------------------------||
||-0-0-0-0-0-0-0-0-5-5-5-5-5-5-5-5-8-8-8-8-8-8-8-8-7-7-7-7-7-7-7-7-------||
||-0-0-0-0-0-0-0-0-5-5-5-5-5-5-5-5-8-8-8-8-8-8-8-8-7-7-7-7-7-7-7-7-------||
   . . . . . . . . . . . . . . . . . . . . . . . . . . . . . . . .

Gtr1
||---------------------------------------------------------------------------||
||---------------------------------------------------------------------------||
||---------------------------------------------------------------------------||
||-12-14-15-17-15-14-14-15-17-19-17-15--15-17-19-20-19-17-17-19-20-22-20-19--||
||---------------------------------------------------------------------------||
||---------------------------------------------------------------------------||
|
|Gtr2
||---------------------------------------------------------------------------||
||---------------------------------------------------------------------------||
||---------------------------------------------------------------------------||
||---------------------------------------------------------------------------||
||-0----0----0----0----0----0----0----0---5----5---5---5---5----5----5----5--||
||-0----0----0----0----0----0----0----0---5----5---5---5---5----5----5----5--||
   .    .    .    .    .    .    .    .   .    .   .   .   .    .    .    .

Gtr1
||---------------------------------------------------------------------------||
||---------------------------------------------------------------------------||
||-19~---------------------------19h21----18~--------------------------------||
||---------------------------------------------------------------------------||
||---------------------------------------------------------------------------||
||---------------------------------------------------------------------------||
|
|Gtr2
||---------------------------------------------------------------------------||
||---------------------------------------------------------------------------||
||---------------------------------------------------------------------------||
||---------------------------------------------------------------------------||
||-8----8----8----8----8----8----8----8---7----7---7---7---7----7----7----7--||
||-8----8----8----8----8----8----8----8---7----7---7---7---7----7----7----7--||
   .    .    .    .    .    .    .    .   .    .   .   .   .    .    .    .

Gtr1
||-15b-----------------------------------------------------------------------||
||---------15~-----15--------15----18----17---15h17p15------15~--------------||
||----------------------17------------------------------17-------------------||
||---------------------------------------------------------------------------||
||---------------------------------------------------------------------------||
||---------------------------------------------------------------------------||
|
|Gtr2
||---------------------------------------------------------------------------||
||---------------------------------------------------------------------------||
||---------------------------------------------------------------------------||
||-8--8---8---8---8---8---8---8---8--0------------------------------------5--||
||-8--8---8---8---8---8---8---8---8--0--0--0--0--0--0--0--0--0-5---7---8-----||
||-8--8---8---8---8---8---8---8---8--0--0--0--0--0--0--0--0--0---0---0---0---||
                                        .  .  .  .  .  .  .  .   .   .   .

Gtr1
||---------------------------------------------------------------------------||
||-t18h10h15-t18h10h15-t18h10h15-t18h10h15-t22h10h15-t22h10h15-t22h10h15-----||
||---------------------------------------------------------------------------||
||---------------------------------------------------------------------------||
||---------------------------------------------------------------------------||
||---------------------------------------------------------------------------||
|
|Gtr2
||---------------------------------------------------------------------------||
||---------------------------------------------------------------------------||
||---------------------------------------------------------------------------||
||-8---------8---------8---------8---------8---------8---------8-------------||
||-8---------8---------8---------8---------8---------8---------8-------------||
||-8---------8---------8---------8---------8---------8---------8-------------||

Gtr1
||---------------------------------------------------------------------------||
||-t22h10h15-t22h15h18-t22h15h18-t22h15h18-t22h15h18-t20h13h17-t20h13h17-----||
||---------------------------------------------------------------------------||
||---------------------------------------------------------------------------||
||---------------------------------------------------------------------------||
||---------------------------------------------------------------------------||
|
|Gtr2
||---------------------------------------------------------------------------||
||---------------------------------------------------------------------------||
||---------------------------------------------------------------------------||
||-8-------------------------------------------------------------------------||
||-8---------0-----0--------0--------0-----0--------0--------0-----0------0--||
||-8---------0-----0--------0--------0-----0--------0--------0-----0------0--||
             .     .        .        .     .        .        .     .      .

Gtr1
||---------------------10h13p10-10h13p10-------------------12h15p12-12h15p12-||
||-t20h13h17-t20h13h17-------------------10h13p10-10h13p10-------------------||
||---------------------------------------------------------------------------||
||---------------------------------------------------------------------------||
||---------------------------------------------------------------------------||
||---------------------------------------------------------------------------||
|
|Gtr2
||---------------------------------------------------------------------------||
||---------------------------------------------------------------------------||
||---------------------------------------------------------------------------||
||---------------------8-------8--------8--------8--------8--------8---------||
||----0-------0--------8-------8--------8--------8--------8--------8---------||
||----0-------0--------8-------8--------8--------8--------8--------8---------||
      .       .

Gtr1
||---------------------------------------------------------------------------||
||-13-----15--13-15-17--15-17-18--17-18-20--18-20-22--20--18-20-18-17--------||
||--------------------------------------------------------------------17-----||
||---------------------------------------------------------------------------||
||---------------------------------------------------------------------------||
||---------------------------------------------------------------------------||
|
|Gtr2
||---------------------------------------------------------------------------||
||---------------------------------------------------------------------------||
||---------------------------------------------------------------------------||
||-8------0-------------------------------------------8--8--8--8--8--8--8----||
||-8------0----0--0--0---0--0--0---5---7---8---5------8--8--8--8--8--8--8----||
||-8------0----0--0--0---0--0--0-----0---0---0--------8--8--8--8--8--8--8----||
               .  .  .   .  .  .     .   .   .

Gtr1
||--------------------------------------------------------------------------||
||-13~-14~-15~~-------------------------------------------------------------||
||--------------------------------------------------------------------------||
||-----------------------------------------3---------------7-------5--------||
||--------------------------------------------------------------------------||
||-------------------------------------------0-0-0-0-0-0-0---0-0-0---0-0-0--||
|                                            . . . . . . .   . . .   . . .
|Gtr2
||--------------------------------------------------------------------------||
||--------------------------------------------------------------------------||
||--------------------------------------------------------------------------||
||-8---7--------------------------------------------------------------------||
||-8---7---5---------------5---------------5---------------8-------7--------||
||-8---7-----0-0-0-0-0-0-0---0-0-0-0-0-0-0---0-0-0-0-0-0-0---0-0-0---0-0-0--||
             . . . . . . .   . . . . . . .   . . . . . . .   . . .   . . .

Gtr1
||------------------------------------------------------------------||
||------------------------------------------------------------------||
||------------------------------------------------------------------||
||---------------------------------3---------------7-------5--------||
||-5----------------------------------------------------------------||
||---0-0-0-0-0-0-0---0-0-0-0-0-0-0---0-0-0-0-0-0-0---0-0-0---0-0-0--||
|    . . . . . . .   . . . . . . .   . . . . . . .   . . .   . . .
|
Gtr2
||------------------------------------------------------------------||
||------------------------------------------------------------------||
||------------------------------------------------------------------||
||------------------------------------------------------------------||
||-5---------------5---------------5---------------8-------7--------||
||---0-0-0-0-0-0-0---0-0-0-0-0-0-0---0-0-0-0-0-0-0---0-0-0---0-0-0--||
     . . . . . . .   . . . . . . .   . . . . . . .   . . .   . . .


Gtr1
||------------------------------------------------------------------||
||------------------------------------------------------------------||
||------------------------------------------------------------------||
||---------------------------------3---------------7-------5--------||
||-5---------------5------------------------------------------------||
||---0-0-0-0-0-0-0---0-0-0-0-0-0-0---0-0-0-0-0-0-0---0-0-0----------||
|    . . . . . . .   . . . . . . .   . . . . . . .   . . .
|
Gtr2
||------------------------------------------------------------------||
||------------------------------------------------------------------||
||------------------------------------------------------------------||
||------------------------------------------------------------------||
||-5---------------5---------------5---------------8-------7--------||
||---0-0-0-0-0-0-0---0-0-0-0-0-0-0---0-0-0-0-0-0-0---0-0-0----------||
     . . . . . . .   . . . . . . .   . . . . . . .   . . .

Gtr1
||-------------------------------------------------------------------||
||o-----------------------------------------------------------------o||
||-------------------------------------------------------------------||
||--3---------------3---------------3---------------7-------5--------||
||o-----------------------------------------------------------------o||
||----0-0-0-000-0-0---0-0-0-000-000---0-0-0-000-0-0---0-0-0---0-0-0--||
|     . . . ... . .   . . . ... ...   . . . ... . .   . . .   . . .
|
Gtr2
||-------------------------------------------------------------------||
||o-----------------------------------------------------------------o||
||-------------------------------------------------------------------||
||-------------------------------------------------------------------||
||o-5---------------5---------------5---------------8-------7-------o||
||----0-0-0-000-0-0---0-0-0-000-000---0-0-0-000-0-0---0-0-0---0-0-0--||
      . . . ... . .   . . . ... ...   . . . ... . .   . . .   . . .

Gtr1
||-------------------------------------------------------------------||
||-------------------------------------------------------------------||
||-------------------------------------------------------------------||
||-3-----0---0-----3-----0---0------3-----0---0-----7-------5--------||
||-------0---0-----------0---0------------0---0----------------------||
||---0-0-0-0-0-0-0---0-0-0-0-0-0-0----0-0-0-0-0-0-0---0-0-0---0-0-0--||
|    . .   .   . .   . .   .   . .    . .   .   . .   . . .   . . .
|
Gtr2
||-------------------------------------------------------------------||
||-------------------------------------------------------------------||
||-------------------------------------------------------------------||
||-------0---0-----------0---0------------0---0----------------------||
||-5-----0---0------5----0---0------5-----0---0-----8-------7--------||
||---0-0-0-0-0-0-0---0-0-0-0-0-0-0----0-0-0-0-0-0-0---0-0-0---0-0-0--||
     . .   .   . .   . .   .   . .    . .   .   . .   . . .   . . .

Gtr1
||-------------------------------------------------------------------||
||-------------------------------------------------------------------||
||-------------------------------------------------------------------||
||-3---------------3---------------3---------------7-------5---------||
||-------------------------------------------------------------------||
||---0-0-0-000-0-0---0-0-0-000-000---0-0-0-000-0-0---0-0-0-----------||
|    . . . ... . .   . . . ... ...   . . . ... . .   . . .
|
Gtr2
||-------------------------------------------------------------------||
||-------------------------------------------------------------------||
||-------------------------------------------------------------------||
||-------------------------------------------------------------------||
||-5---------------5---------------5---------------8-------7---------||
||---0-0-0-000-0-0---0-0-0-000-000---0-0-0-000-0-0---0-0-0-----------||
     . . . ... . .   . . . ... ...   . . . ... . .   . . .


This is my first tab so enjoy :]





Comments


Popular I Killed The Prom Queen tabs & chords
Upon A Rivers Sky Bass Tabs
666 Tabs
Columbian Necktie Tabs
Death Certificate For A Beauty Queen Tabs
Say Goodbye Tabs
Sharks In Your Mouth 5 Tabs
Sleepless Nights And City Lights Tabs
Sleepless Nights And City Lights Intro Tabs
There Will Be No Violins When You Die 1 Tabs
Your Shirt Would Look Better With A Columbian Neck-Tie 2 Tabs


Song lyrics



↑ Back to top | Tablatures and chords are parodies/interpretations of the original songs. You may use it for private study, scholarship, research or language learning purposes only
© 2014 AZChords.com Contact us | Privacy policy | DMCA | Add/correct tabs | Request tabs | Top 50 tabs