» » »

Sharks In Your Mouth Tabs (ver.3)

Artists:  A B C D E F G H I J K L M N O P Q R S T U V W X Y Z # 

Sharks In Your Mouth Tabs (ver.3)

I Killed The Prom Queen
Rating:
3/5 (4 votes)

Hard to play? Try these video lessons and learn fast.
                sheesh. sharks in your mouth is their best song but all they have is guitar pro. so ill 
tabbing their song =]
i only have the intro down cuz its one of my few first tabs.
but enjoy

                   *first guitar*
C#--------------------------------------------------------------|
G#--------------------------------------------------------------|
E----7~----7~------7--7----7~----10--9--10---10~----10~---------|
B----x-----x-------x--x----x------x--x---x----x------x~---------|
F#---5~----5~------5--5----5~-----8--7---8----8~-----8~---------|
B---------------------------------------------------------------|

C#--------------------------------------------------------------|
G#--------------------------------------------------------------|
E---10-10----5--5----10--9--------------------------------------|
B----x--x----x--x-----x--x--------------------------------------|
F#---8--8----3--3-----8--7--------------------------------------|
B---------------------------------------------------------------|


                  *second guitar* (harmonizing)

C#--------------------------------------------------------------|
G#--------------------------------------------------------------|
E---10~----10~-----10--10---10~----14--12----14~----14~---------|
B----x------x~------x---x----x------x---x-----x------x----------|
F#---8~-----8~------8---8----8~----12--10----12~----12~---------|
B---------------------------------------------------------------|

C#--------------------------------------------------------------|
G#--------------------------------------------------------------|
E----9~-----9~------14--12--------------------------------------|
B----x------x--------x---x--------------------------------------|
F#---7~-----7~------12--10--------------------------------------|
B---------------------------------------------------------------|

PLAY TILL VERSE

verse

C#--------------------------------------------------------------|
G#--------------------------------------------------------------|
E---------------------------------------------------------------|
B---0-0--2-3-2-3-0-0-2-3-2-3-0-0-0-0-0--------------------------| x's 2
F#--0-0----------0-0---------0-0-0-0-0--------------------------|
B---0-0----------0-0---------0-0-0-0-0--------------------------|
    PM           PM       PM(palm mute tremolo it to make it sound better)

C#--------------------------------------------------------------|
G#--------------------------------------------------------------|
E---------------------------------------------------------------|
B---3-3--2-3-2-3-3-3-2-3-2-3-3-3-3-3-3--------------------------|
F#--3-3----------3-3---------3-3-3-3-3--------------------------|
B---3-3----------3-3---------3-3-3-3-3--------------------------|
    PM           PM              PM

C#--------------------------------------------------------------|
G#--------------------------------------------------------------|
E---------------------------------------------------------------|
B-------2-3-2-3-----2-3-2-3-----2-3-2-3-5-3-2-3-----------------|
F#--3-3---------3-3---------3-3---------------------------------|
B---------------------------------------------------------------|
    PM          PM          PM

listen carefully till second guitar joins harmonizing
(second guitar)

C#--------------------------------------------------------------|
G#--------------------------------------------------------------|
E---------------------------------------------------------------|
B---5-7-5-7---5-7-5-7--repeat---5-7-5-7-8-7-5-7*----------------|
F#--------------------------------------------------------------|
B---------------------------------------------------------------|
second guitar also does the palm muting power chords

the rest is going to be finished! i guarantee!

AIM - CyaNidexLandMine
            
Hard to play? Try these video lessons and learn fast. | Correct




comments powered by Disqus
↑ Back to top | Tablatures and chords are parodies/interpretations of the original songs. You may use it for private study, scholarship, research or language learning purposes only