» » »

Ignite, Veteran Bass tabs (ver.1)

Artists:  A B C D E F G H I J K L M N O P Q R S T U V W X Y Z # 

Veteran Bass tabs (ver.1)

Ignite Tabs
 Rating:
4/5 (4 votes)
Veteran lessons Tabs too difficult? Try these video lessons and learn fast
                The other tab was perfectly right.. but its easier to play it like this.. u havnt to stretch your fingers so much:] have fun

Chorus  x1   
G|---------------------------------------------------------------------------|
D|--------111111--------333333--------111111---------------------------------|
A|---------------1-1-11----------------------1-1-11--------------------------|
E|-3-3-33----------------------3-3-33---------------111111-------------------|

Verse   x12
G|---------------------------------------------------------------------------|
D|------------1-1-1h3p1------------------------------------------------------|
A|-1h3-----------------------------------------------------------------------|
E|-----333-------------------------------------------------------------------|

Chorus  x1   
G|---------------------------------------------------------------------------|
D|--------111111--------333333--------111111---------------------------------|
A|---------------1-1-11----------------------1-1-11--------------------------|
E|-3-3-33----------------------3-3-33---------------111111-------------------|

Verse   x4
G|---------------------------------------------------------------------------|
D|------------1-1-1h3p1------------------------------------------------------|
A|-1h3-----------------------------------------------------------------------|
E|-----333-------------------------------------------------------------------|

Chorus  x2 
G|---------------------------------------------------------------------------|
D|--------111111--------333333--------111111---------------------------------|
A|---------------1-1-11----------------------1-1-11--------------------------|
E|-3-3-33----------------------3-3-33---------------111111-------------------|

Fill In  x2
G|---------------------------------------------------------------------------|
D|---------1-1-1-1-----------------3-3-3-3-----------------------------------|
A|-----------------1-1-1-1---------------------------------------------------|
E|-3-3-3-3-------------------------------------------------------------------|

Bridge 1 x4
G|---------------------------------------------------------------------------|
D|--------11--------------33-------------------------------------------------|
A|---------------11----------------------------------------------------------|
E|-33------------------------------------------------------------------------|

Chorus  x1 (During Solo)   
G|---------------------------------------------------------------------------|
D|--------111111--------333333--------111111---------------------------------|
A|---------------1-1-11----------------------1-1-11--------------------------|
E|-3-3-33----------------------3-3-33---------------111111-------------------|

Chorus  x1   
G|---------------------------------------------------------------------------|
D|--------111111--------333333--------111111---------------------------------|
A|---------------1-1-11----------------------1-1-11--------------------------|
E|-3-3-33----------------------3-3-33---------------111111-------------------|

Guitar plays verse riff alone x1

Chorus  x2   
G|---------------------------------------------------------------------------|
D|--------111111--------333333--------111111---------------------------------|
A|---------------1-1-11----------------------1-1-11--------------------------|
E|-3-3-33----------------------3-3-33---------------111111-------------------|

Bridge 2  x1
G|---------------------------------------------------------------------------|
D|--(Mute Strings)------------333333-----------------------------------------|
A|---------------1-1-11------------------------------------------------------|
E|-3-------------------------------------------------------------------------|

Ending
G|----------------------------------------------------------------------------|
D|--------111111--------------------------------------------------------------|
A|---------------111111-------------------------------------------------------|
E|-3-3-33----------------111111-3---------------------------------------------|
            
Submit corrections

comments powered by Disqus
↑ Back to top | Ignite Bass for Veteran. Lyrics for acoustic guitar and electric guitar. Tablatures and chords are parodies/interpretations of the original songs. You may use it for private study, scholarship, research or language learning purposes only