» » »

Veteran Bass tabs (ver.2)

Artists:  A B C D E F G H I J K L M N O P Q R S T U V W X Y Z # 

Veteran Bass tabs (ver.2)

Ignite
Rating:
0/5 (0 votes)

Hard to play? Try these video lessons and learn fast.
                Chorus  x1   
G|---------------------------------------------------------------------------|
D|---------------------------------------------------------------------------|
A|--------666666--------888888--------666666---------------------------------|
E|-3-3-33--------6-6-66--------3-3-33--------6-6-66-111111-------------------|

Verse   x12
G|---------------------------------------------------------------------------|
D|---------------------------------------------------------------------------|
A|---------6-6-6h8p6---------------------------------------------------------|
E|-6h8-333-------------------------------------------------------------------|

Chorus  x1   
G|---------------------------------------------------------------------------|
D|---------------------------------------------------------------------------|
A|--------666666--------888888--------666666---------------------------------|
E|-3-3-33--------6-6-66--------3-3-33--------6-6-66-111111-------------------|

Verse   x4
G|---------------------------------------------------------------------------|
D|---------------------------------------------------------------------------|
A|---------6-6-6h8p6---------------------------------------------------------|
E|-6h8-333-------------------------------------------------------------------|

Chorus  x2 
G|---------------------------------------------------------------------------|
D|---------------------------------------------------------------------------|
A|--------666666--------888888--------666666---------------------------------|
E|-3-3-33--------6-6-66--------3-3-33--------6-6-66-111111-------------------|

Fill In  x2
G|---------------------------------------------------------------------------|
D|---------------------------------------------------------------------------|
A|---------6-6-6-6---------8-8-8-8-------------------------------------------|
E|-3-3-3-3---------6-6-6-6---------------------------------------------------|

Bridge 1 x4
G|---------------------------------------------------------------------------|
D|---------------------------------------------------------------------------|
A|--------66------------88---------------------------------------------------|
E|-33------------66----------------------------------------------------------|

Chorus  x1 (During Solo)   
G|---------------------------------------------------------------------------|
D|---------------------------------------------------------------------------|
A|--------666666--------888888--------666666---------------------------------|
E|-3-3-33--------6-6-66--------3-3-33--------6-6-66-111111-------------------|

Chorus  x1   
G|---------------------------------------------------------------------------|
D|---------------------------------------------------------------------------|
A|--------666666--------888888--------666666---------------------------------|
E|-3-3-33--------6-6-66--------3-3-33--------6-6-66-111111-------------------|

Guitar plays verse riff alone x1

Chorus  x2   
G|---------------------------------------------------------------------------|
D|---------------------------------------------------------------------------|
A|--------666666--------888888--------666666---------------------------------|
E|-3-3-33--------6-6-66--------3-3-33--------6-6-66-111111-------------------|

Bridge 2  x1
G|---------------------------------------------------------------------------|
D|--(Mute Strings)-----------------------------------------------------------|
A|----------------------888888-----------------------------------------------|
E|-3-------------6-6-66------------------------------------------------------|

Ending
G|---------------------------------------------------------------------------|
D|---------------------------------------------------------------------------|
A|--------666666-------------------------------------------------------------|
E|-3-3-33--------666666-111111-3---------------------------------------------|
            
Hard to play? Try these video lessons and learn fast. | Correct




comments powered by Disqus
↑ Back to top | Tablatures and chords are parodies/interpretations of the original songs. You may use it for private study, scholarship, research or language learning purposes only