>
 >
Veteran

Veteran Guitar Tabs

Ignite - Veteran chords, tabs, tablatures, lyrics

Guitar lessons | Add/correct | Request | Top 50 tabs Artists:  A B C D E F G H I J K L M N O P Q R S T U V W X Y Z 0-9

Veteran Guitar Tabs – Ignite

CD, Sheet music, Poster

Do you like Veteran? Share with your friends now
Bass TabsBass Tabs v2Tabs
/ - slide
* - mute
X - dead note/scratch
()- ring


E|-----------------------------------------------|
B|-----------------------------------------------|
G|-----------8-8-8-8-8-------------10-10-10-10-10| 
D|-----------6-6-6-6-6-------------8--8--8--8--8-| 
A|5-5-5-5-5-------------8-8-8-8-8----------------|
E|3-3-3-3-3-------------6-6-6-6-6----------------|
    *   *                 *   *
E|-----------------------------------------------|
B|-----------------------------------------------|
G|-----------8-8-8-8-8---------------------------| 
D|-----------6-6-6-6-6---------------------------| 
A|5-5-5-5-5-------------8-8-8-8-8--3-3-3-3-3-----|
E|3-3-3-3-3-------------6-6-6-6-6--1-1-1-1-1-----|
    *   *                 *   *
E|-----------------------------------------------|
B|-----------------------------------------------|
G|-----------8-8-8-8-8-------------10-10-10-10-10| 
D|-----------6-6-6-6-6-------------8--8--8--8--8-| 
A|5-5-5-5-5-------------8-8-8-8-8----------------|
E|3-3-3-3-3-------------6-6-6-6-6----------------|
    *   *                 *   *
 
E|-------------------------------------------------------------------------|
B|-------------------------------------------------------------------------|
G|-------------------------------------------------------------------------|
D|----------------8-8-8-8-8-8-8-8-------------------10-10-10-10-10-10-10-10|
A|5-5-5-5-5-5-5-5-6-6-6-6-6-6-6-6--8-8-8-8-8-8-8-8--8--8--8--8--8--8--8--8-|
E|3-3-3-3-3-3-3-3------------------6-6-6-6-6-6-6-6-------------------------|

E|-------------------------------------------------------------------------|
B|-------------------------------------------------------------------------|
G|-------------------------------------------------------------------------|
D|-----------------8-8-8-8-8-8-8-8-----------------------------------------|
A|5-5-5-5-5-5-5-5--6-6-6-6-6-6-6-6--8-8-8-8-8-8-8-8--3-3-3-3-3-3-3---------|
E|3-3-3-3-3-3-3-3-------------------6-6-6-6-6-6-6-6--1-1-1-1-1-1-1---------|
                                                     * * * * * * *
E|----------------------|
B|----------------------|
G|----------------------|
D|-----------8-8-8-8-/10| X4
A|8/10--5-5--6-6-6-6/-8-|
E|6/8---3-3-------------|
             *   * 

E|----------------------|
B|----------------------|
G|-----------8-8-8-8-/10|
D|-----------6-6-6-6/-8-| X4
A|8/10--5-5-------------|
E|6/8---3-3-------------|

E|-------------------------------------------------------------------------|
B|-------------------------------------------------------------------------|
G|-------------------------------------------------------------------------|
D|----------------8-8-8-8-8-8-8-8-------------------10-10-10-10-10-10-10-10|
A|5-5-5-5-5-5-5-5-6-6-6-6-6-6-6-6--8-8-8-8-8-8-8-8--8--8--8--8--8--8--8--8-|
E|3-3-3-3-3-3-3-3------------------6-6-6-6-6-6-6-6-------------------------|

E|-------------------------------------------------------------------------|
B|-------------------------------------------------------------------------|
G|-------------------------------------------------------------------------|
D|----------------8-8-8-8-8-8-8-8------------------------------------------|
A|5-5-5-5-5-5-5-5-6-6-6-6-6-6-6-6--8-8-8-8-8-8-8-8--3-3-3-3-3-3-3----------|
E|3-3-3-3-3-3-3-3------------------6-6-6-6-6-6-6-6--1-1-1-1-1-1-1----------|
                                                     * * * * * * *
E|----------------------|
B|----------------------|
G|----------------------|
D|-----------8-8-8-8-/10| 
A|8/10--5-5--6-6-6-6/-8-|
E|6/8---3-3-------------|
             *   * 
E|----------------------|
B|----------------------|
G|-----------8-8-8-8-/10|
D|-----------6-6-6-6/-8-| X3
A|8/10--5-5-------------|
E|6/8---3-3-------------|


E|-------------------------------------------------------------------------|
B|-------------------------------------------------------------------------|
G|-------------------------------------------------------------------------|
D|----------------8-8-8-8-8-8-8-8-------------------10-10-10-10-10-10-10-10|
A|5-5-5-5-5-5-5-5-6-6-6-6-6-6-6-6--8-8-8-8-8-8-8-8--8--8--8--8--8--8--8--8-|
E|3-3-3-3-3-3-3-3------------------6-6-6-6-6-6-6-6-------------------------|
                                                                               X2
E|-------------------------------------------------------------------------|
B|-------------------------------------------------------------------------|
G|-------------------------------------------------------------------------|
D|----------------8-8-8-8-8-8-8-8------------------------------------------|
A|5-5-5-5-5-5-5-5-6-6-6-6-6-6-6-6--8-8-8-8-8-8-8-8--3-3-3-3-3-3-3----------|
E|3-3-3-3-3-3-3-3------------------6-6-6-6-6-6-6-6--1-1-1-1-1-1-1----------|
                                                     * * * * * * *

E|----------------------------------------|  
B|----------------------------------------|  
G|----------------------------------------|  
D|----------------12-12-12-12-12-12-12-12-|  
A|(5)--5-5-5-(5)--10-10-10-10-10-10-10-10-|
E|(3)--3-3-3-(3)--------------------------|  
       * * *                                 


E|-----------------------------------------------------------------|
B|-----------------------------------------------------------------|
G|---------------8-8-8-8-8-8-8-----------------10-10-10-10-10-10-10|
D|---------------6-6-6-6-6-6-6-----------------8--8--8--8--8--8--8-| X6
A|5-5-5-5-5-5-5-----------------8-8-8-8-8-8-8----------------------|
E|3-3-3-3-3-3-3-----------------6-6-6-6-6-6-6----------------------                              
 * * *          * * *          * * *          *  *  *

E|--------------------------------|
B|--------------------------------|
G|--------------------------------|
D|--------------------------------|
A|5--3/5-3/5-7-7-7-7-7-5/7-5/7-8/3|
E|3-------------------------------|

 
E|-------------------------------------------------------------------------|
B|-------------------------------------------------------------------------|
G|-------------------------------------------------------------------------|
D|----------------8-8-8-8-8-8-8-8-------------------10-10-10-10-10-10-10-10|
A|5-5-5-5-5-5-5-5-6-6-6-6-6-6-6-6--8-8-8-8-8-8-8-8--8--8--8--8--8--8--8--8-|
E|3-3-3-3-3-3-3-3------------------6-6-6-6-6-6-6-6-------------------------|

E|-------------------------------------------------------------------------|
B|-------------------------------------------------------------------------|
G|-------------------------------------------------------------------------|
D|----------------8-8-8-8-8-8-8-8------------------------------------------|
A|5-5-5-5-5-5-5-5-6-6-6-6-6-6-6-6--8-8-8-8-8-8-8-8--3-3-3-3-3-3-3----------|
E|3-3-3-3-3-3-3-3------------------6-6-6-6-6-6-6-6--1-1-1-1-1-1-1----------|
                                                     * * * * * * *

E|-----------------------------|
B|-----------------------------|
G|-----------------------------|
D|---------------10-10-10-10-10|
A|8/10--5-5-5-5--8--8--8--8--8-|
E|6/8---3-3-3-3----------------|


E|-------------------------------------------------------------------------|
B|-------------------------------------------------------------------------|
G|-------------------------------------------------------------------------|
D|----------------8-8-8-8-8-8-8-8-------------------10-10-10-10-10-10-10-10|
A|5-5-5-5-5-5-5-5-6-6-6-6-6-6-6-6--8-8-8-8-8-8-8-8--8--8--8--8--8--8--8--8-|
E|3-3-3-3-3-3-3-3------------------6-6-6-6-6-6-6-6-------------------------|
                                                                              X2
E|-------------------------------------------------------------------------|
B|-------------------------------------------------------------------------|
G|-------------------------------------------------------------------------|
D|----------------8-8-8-8-8-8-8-8------------------------------------------|
A|5-5-5-5-5-5-5-5-6-6-6-6-6-6-6-6--8-8-8-8-8-8-8-8--3-3-3-3-3-3-3----------|
E|3-3-3-3-3-3-3-3------------------6-6-6-6-6-6-6-6--1-1-1-1-1-1-1----------|
                                                     * * * * * * *


E|-------------------------------------------------------------|
B|-------------------------------------------------------------|
G|-------------------------------------------------------------|
D|----8-8-8-8-8-8-8-8------------------------------------------|
A|5X--6-6-6-6-6-6-6-6--8-8-8-8-8-8-8-8--3-3-3-3-3-3-3----------|
E|3X-------------------6-6-6-6-6-6-6-6--1-1-1-1-1-1-1----------|
                                        * * * * * * *





Comments


Popular Ignite tabs & chords
Embrace 1 Bass Tabs
Fill In The Blanks Bass Tabs
Know Your History Bass Tabs
Run Bass Tabs
Veteran Bass Tabs
Live For Better Days Chords
Aggression Tabs
Fear Is Our Tradition Tabs
Our Darkest Days Intro Tabs
Where They Talk Tabs


Song lyrics



↑ Back to top | Tablatures and chords are parodies/interpretations of the original songs. You may use it for private study, scholarship, research or language learning purposes only
© 2014 AZChords.com Contact us | Privacy policy | DMCA | Add/correct tabs | Request tabs | Top 50 tabs