» » »

What I Should Have Learned In Study Hall Tabs (ver.2)

Artists:  A B C D E F G H I J K L M N O P Q R S T U V W X Y Z # 

What I Should Have Learned In Study Hall Tabs (ver.2)

Ice Nine Kills
Rating:
4/5 (9 votes)

Hard to play? Try these video lessons and learn fast.
                ----------------------------------------------------------------------------
        What I should have learned in study hall - Ice Nine Kills
----------------------------------------------------------------------------
Tuning: Standard

Play with an acoustic
Inrtro: play twice
e|---------------------------------------------------------|
B|---------------------------------------------4-----2-----|
G|-----4---3-4-------4---3-4---------4---3-4-----4-----4---|
D|-4-4---4-----4-4-4---4-----4-----4---4-----4-----4-----4-|
A|-2-------------2--------------2--------------------------|
E|------------------------------0--------------------------|

Verse:
e|-------------------------------------------------------------------------|
B|-------------------------------------------------------------------------|
G|-4-4-4-4-4-4-4-4-4-4-4-4-4-4-4-4-4-4-4-4-3-3-3-3-3-3-3-3-3-3-3-3-3-3-3-3-|
D|-4-4-4-4-4-4-4-4-4-4-4-4-4-4-4-4-4-4-4-4-3-3-3-3-3-3-3-3-3-3-3-3-3-3-3-3-|
A|-2-2-2-2-2-2-2-2-2-2-2-2-2-2-2-2-2-2-2-2-1-1-1-1-1-1-1-1-1-1-1-1-1-1-1-1-|
E|-------------------------------------------------------------------------|

The rest of the verse:
e|-------------------------------------------------------------------------|
B|-------------------------------------------------------------------------|
G|-3-3-3-3-----------------------------------------------------------------|
D|-3-3-3-3-2-2-2-2-2-2--2-2-2-2-2-2-4-4-4-4-4-4-4-4-4-4/8-8-8-8-8-8-8-8-8-8|
A|-1-1-1-1-2-2-2-2-2-2--2-2-2-2-2-2-4-4-4-4-4-4-4-4-4-4/8-8-8-8-8-8-8-8-8-8|
E|---------0-0-0-0-0-0--0-0-0-0-0-0-2-2-2-2-2-2-2-2-2-2/6-6-6-6-6-6-6-6-6-6|
Play the entire verse twice.

Chorus:
e|-------------------------------------------------------------------------|
B|-------------------------------------------------------------------------|
G|-4-4-4-4-4-4-4-4-4-4-4-4-4-4-4-4-4-4-4-4---------------------------------|
D|-4-4-4-4-4-4-4-4-4-4-4-4-4-4-4-4-4-4-4-4-4-4-4-4-4-4-4-4-4-4-4-4-4-4-4-4-|
A|-2-2-2-2-2-2-2-2-2-2-2-2-2-2-2-2-2-2-2-2-4-4-4-4-4-4-4-4-4-4-4-4-4-4-4-4-|
E|-----------------------------------------2-2-2-2-2-2-2-2-2-2-2-2-2-2-2-2-|

The rest of the chorus:
e|-------------------------------|
B|-------------------------------|
G|-------------------------------|
D|-4-4-4-4-6-6-6-6-6-6-6-6-6-6-2-|
A|-4-4-4-4-6-6-6-6-6-6-6-6-6-6-2-|
E|-2-2-2-2-4-4-4-4-4-4-4-4-4-4-0-|

Brige after 2nd chorus:
e|----------------------------------------------|
B|-4---4---4---2---2---2---5---5---5----4--2--2-|
G|----------------------------------------------|
D|---4---4---4---4---4---4---4---4---4----------|
A|----------------------------------------------|
E|----------------------------------------------|


| /  slide up
| \  slide down
| h  hammer-on
| p  pull-off
| ~  vibrato
| +  harmonic
| x  Mute note
============================================================================
            
Hard to play? Try these video lessons and learn fast. | Correct




comments powered by Disqus
↑ Back to top | Tablatures and chords are parodies/interpretations of the original songs. You may use it for private study, scholarship, research or language learning purposes only