>
 >
I Do And I Don't

I Do And I Don't Guitar Tabs

Ice Nine Kills - I Do And I Don't chords, tabs, tablatures, lyrics

Guitar lessons | Add/correct | Request | Top 50 tabs Artists:  A B C D E F G H I J K L M N O P Q R S T U V W X Y Z 0-9

I Do And I Don't Guitar Tabs – Ice Nine Kills

CD, Sheet music, Poster

Do you like I Do And I Don't? Share with your friends now
Tabs
-------------------------------------------------------------------------------
-------------------------------------------------------------------------------

Tuning:drop d

its only the rhythm guitar but i hope it helps. doesnt include the strumming
pattern but its easy to figure out.

intro
e|---------------------------------------------------------------|
B|---------------------------------------------------------------|
G|-10--7--5--3-------10--7--5------------------------------------|
D|-10--7--5--3-------10--7--5--------5-7-8-----------------------|
A|-8---5--3--1-------8---5--3------------------------------------|
E|---------------------------------------------------------------|

chorus
e|-----------------------------------------------------------|
B|-----------------------------------------------------------|
G|--------7-7-7--5-5-5--3-3-3--------------------------------|
D|-3-3-3--7-7-7--5-5-5--3-3-3--------------------------------|
A|-3-3-3--5-5-5--3-3-3--1-1-1--------------------------------|
E|-3-3-3-----------------------------------------------------|

verse
e|-------------------------------------------|
B|-------------------------------------------|
G|-10--7---5----3----------------------------|
D|-10--7---5----3----------------------------|
A|-8---5---3----1----------------------------|
E|-------------------------------------------|

e|----------------------------------------------------|
B|----------------------------------------------------|
G|---------7-7-7---5-5-5--------2---3---5-------------|
D|-3-3-3---7-7-7---5-5-5----5---2---3---5-------------|
A|-3-3-3---5-5-5---3-3-3----5---0---1---3-------------|
E|-3-3-3--------------------5-------------------------|
   . . .   . . .   . . .

Pre-chorus

e|----------------------------------------------------|
B|----------------------------------------------------|
G|--10--10--10--5--5--3--2--3-------------------------|
D|--10--10--10--5--5--3--2--3-------------------------|
A|--8---8---8---3--3--1--0--1-------------------------|
E|----------------------------------------------------|

e|----------------------------------------------------|
B|----------------------------------------------------|
G|-3--3--3--2--3--3--3--2--3--3--3--5--3--3--3--5-----|
D|-3--3--3--2--3--3--3--2--3--3--3--5--3--3--3--5-----|
A|-1--1--1--0--1--1--1--0--1--1--1--3--1--1--1--3-----|
E|----------------------------------------------------|

e|-6p5-8p6---6--------------|
B|----6----6----------------|
G|--------------------------|
D|--------------------------|
A|--------------------------|
E|--------------------------|

chorus
e|-------------------------------------------------------------------|
B|-------------------------------------------------------------------|
G|--------7-7-7--5-5-5--3-3-3---------7-7-7--5-5-5-------2-2--3-3--5-|
D|-3-3-3--7-7-7--5-5-5--3-3-3--3-3-3--7-7-7--5-5-5--5-5--2-2--3-3--5-|
A|-3-3-3--5-5-5--3-3-3--1-1-1--3-3-3--5-5-5--3-3-3--5-5--0-0--1-1--3-|
E|-3-3-3-----------------------3-3-3----------------5-5--------------|

e|------------------------------------|
B|------------------------------------|
G|------------------------------------|
D|-5-5--7-7--5-5--7-7--5-5--7-7-------|
A|-5-5--7-7--5-5--7-7--5-5--7-7-------|
E|-5-5--7-7--5-5--7-7--5-5--7-7-------|

During solo play this
e|------------------------------------|
B|------------------------------------|
G|-3-3-3--5-5-5--3-3-3--5-5-5---------|
D|-3-3-3--5-5-5--3-3-3--5-5-5---------|
A|-1-1-1--3-3-3--1-1-1--3-3-3---------|
E|------------------------------------|

e|------------------------------------|
B|------------------------------------|
G|-------------5----------------------|
D|-8---7---3---5----------------------|
A|-8---7---3---3----------------------|
E|-8---7---3--------------------------|


dont know the next bit...

e|------------------------------------|
B|------------------------------------|
G|---------------3-3-3--5-5-5---------|
D|-3-3-3--5-5-5--3-3-3--5-5-5---------|
A|-3-3-3--5-5-5--1-1-1--3-3-3---------|
E|-3-3-3--5-5-5-----------------------|
   . . .  . . .  . . .  . . .

e|------------------------------------|
B|------------------------------------|
G|----9--10-----12--10----------------|
D|-3---------3------------------------|
A|-3--7--8---3--10--8-----------------|
E|-3---------3------------------------|

e|------------------------------------|
B|------------------------------------|
G|-10-10-10--5-5-5--------------------|
D|-10-10-10--5-5-5--------------------|
A|-8--8--8---3-3-3--------------------|
E|------------------------------------|

e|-----------------|
B|-----------------|
G|-----------------|
D|-5-5--5-5--------|
A|-5-5--5-5--------|
E|-5-5--5-5--------|

and thats as much as ive done so far. il post the rest of this tab when im finished





| /  slide up
| \  slide down
| h  hammer-on
| p  pull-off
| ~  vibrato
| +  harmonic
| x  Mute note
===============================================================================





Comments


Popular Ice Nine Kills tabs & chords
What I Should Have Learned In Study Hall Chords
A Lifetime In A Week Tabs
A Lifetime In A Week 1 Tabs
Build A Bridge And Jump Off Tabs
Build Your Own Disaster Intro 2 Tabs
Finding Emo Intro Tabs
Last Words Intro 2 Tabs
The Simple Act Of Giving Up Tabs
What I Really Learned In Study Hall 1 Tabs
What I Should Have Learned In Study Hall Tabs


Song lyrics



↑ Back to top | Tablatures and chords are parodies/interpretations of the original songs. You may use it for private study, scholarship, research or language learning purposes only
© 2014 AZChords.com Contact us | Privacy policy | DMCA | Add/correct tabs | Request tabs | Top 50 tabs