>
 >
What I Should Have Learned In Study Hall

What I Should Have Learned In Study Hall Guitar Tabs

Ice Nine Kills - What I Should Have Learned In Study Hall chords, tabs, tablatures, lyrics

Guitar lessons | Add/correct | Request | Top 50 tabs Artists:  A B C D E F G H I J K L M N O P Q R S T U V W X Y Z 0-9

What I Should Have Learned In Study Hall Guitar Tabs – Ice Nine Kills

CD, Sheet music, Poster

Do you like What I Should Have Learned In Study Hall? Share with your friends now
ChordsTabsTabs v2Ukulele
-------------------------------------------------------------------------------
-------------------------------------------------------------------------------

Tuning: Drop C

Acoustic

Intro Gtr.1
d|---------------------------------------------------------------------------|
A|------0--------0--------0----5---3--------0-------0-------0----------------|
F|----5--5-----5--5-----5--5----5---5-----5--5----5--5----5--5---55----------|
C|-55--5--5-55--5--5-----5--5----5---5-----5--5----5--5----5--5--55----------|
G|-33-------33-------33-----------------00------00------33-------33----------|
C|-------------------33---------------------------------33-------33----------|

Verse Gtr.2 Listen for strumming
d|------------------|
A|------------------|
F|--5--4------------|
C|--5--5--2--3--5---|
G|--3--2--2--3--5---|
C|--------2--3--5---|x2

Gtr.1 (Beginning the 2nd time through gtr.2's part)
d|----------------------------------------|
A|-------0---------0--------0----3---0----|
F|-----5--5------5--5-----5--5----5---5---|
C|--55--5--5--55--5--5-----5--5----5---5--|
G|--33--------33-------22-----------------|
C|----------------------------------------|

Prechorus Gtr.2
"I'm thinking it over.."
e|-----------------|
B|-----------------|
G|-5--4--5---------|
D|-5--5--5--3--5---|
A|-3--2--3--3--5---|
E|----------3--5---|

Gtr.1
e|-8-8-8-8-------7-7-7-7-------8-8-8-8-------10-10-10------12-12-12----------|
B|---------------------------------------------------------------------------|
G|--9-9-9-9--x3---9-9-9-9--x3---9-9-9-9--x3----9--9--9--x2---9--9--9--x2-----|
D|---------------------------------------------------------------------------|
A|---------------------------------------------------------------------------|
E|---------------------------------------------------------------------------|

Chorus Gtr.2
"In Colorado.."
e|---------------------------------------------------------------------------|
B|---------------------------------------------------------------------------|
G|--5------------------------------------------------------------------------|
D|--5--5--7--5--3--5---------------------------------------------------------|
A|--3--5--7--5--3--5---------------------------------------------------------|
E|-----5--7--5--3--5---------------------------------------------------------|

Gtr.1
e|-------12----------12--------10---------10---------------------------------------|
B|----13----13---13----13----13--13---13----13-------------------------------------|
G|-12----------12--12------12-------12--12-------9-9-9-9-9-9-7-7-7-10-10-10--5~--7~|
D|---------------------------------------------------------------------------------|
A|---------------------------------------------------------------------------------|
E|---------------------------------------------------------------------------------|

Bridge
Gtr.2
e|--------------|
B|--------------|
G|--5-----------|
D|--5--5--3--5--|
A|--3--5--3--5--|
E|-----5--3--5--|x3

Gtr.1
e|------------------------------------12--12------10--10------13--13---12p10-8-h10-8-h10-|
B|----------------------------------13--13--13--13--13--13--13--13--13-------------------|
G|--9-9-9-7-7-7-10-10-10-9\7-7----12----------12----------12-----------------------------|
D|---------------------------------------------------------------------------------------|
A|---------------------------------------------------------------------------------------|
E|---------------------------------------------------------------------------------------|

Final Chorus End Riff (Over Gtr.2's chorus chords)
Gtr.1
e|---------------------------------------------------------------------------|
B|---------------------------------------------------------------------------|
G|---------------------------------------------------------------------------|
D|---------------------------------------------------------------------------|
A|-7-8--7h8-7h8-7h8-7-5---7-8--7h8-7h8-7h8--3--3-5-3--7h8p7-5h7p5-3p2h3------|
E|---------------------------------------------------------------------------|

Song Construct:

Intro
Verse
Pre Chorus
Chorus
Verse
Pre Chorus
Chorus
Bridge
Chorus
End Riff


| /  slide up
| \  slide down
| h  hammer-on
| p  pull-off
| ~  vibrato
| +  harmonic
| x  Mute note
===============================================================================





Comments


Popular Ice Nine Kills tabs & chords
The Simple Act Of Giving Up 1 Chords
What I Really Learned In Study Hall Chords
A Lifetime In A Week 4 Tabs
Cinder Blocks And Thank You Knots Tabs
Family Unties Tabs
Finding Emo Intro 1 Tabs
The Greatest Story Ever Told Tabs
The Simple Act Of Giving Up Tabs
The Simple Act Of Giving Up Ukulele
What I Should Have Learned In Study Hall Ukulele


Song lyrics



↑ Back to top | Tablatures and chords are parodies/interpretations of the original songs. You may use it for private study, scholarship, research or language learning purposes only
© 2014 AZChords.com Contact us | Privacy policy | DMCA | Add/correct tabs | Request tabs | Top 50 tabs