>
 >
What I Really Learned In Study Hall 1

What I Really Learned In Study Hall 1 Guitar Tabs

Ice Nine Kills - What I Really Learned In Study Hall 1 chords, tabs, tablatures, lyrics

Guitar lessons | Add/correct | Request | Top 50 tabs Artists:  A B C D E F G H I J K L M N O P Q R S T U V W X Y Z 0-9

What I Really Learned In Study Hall 1 Guitar Tabs – Ice Nine Kills

CD, Sheet music, Poster

Do you like What I Really Learned In Study Hall 1? Share with your friends now
ChordsTabsTabs v2Tabs v3Ukulele
Artist- Ice Nine Kills
Song- What I Really Learned In Study Hall


This is my first tab and this is a great song and I saw no one had it tabbed
fully… its 99%ish right… it takes a lot of listening to get it perfectly… 

Intro- work out the strumming all I have is the numbers
e-------------------------------------------------------|
b-------------------------------------------------------|
g--44-444444-------------------11111111--99xxx999/11\9--|
d--44-444444--44-444444--6666--11111111--99xxx999/11\9--|
a--22-222222--44-444444--6666--9-9-9-9---77xxx777/9-\7--|
D-------------44-444444--6666---------------------------|

Intro cont.- 
e---------------------------------------------------------|
b---------------------------------------------------------|
g--44-444444-------------------11111111--99999999---------|
d--44-444444--44-444444--6666--11111111--99999999---------|
a--22-222222--44-444444--6666--9-9-9-9---77777777---------|
D-------------44-444444--6666-----------------------------|

Verse- 
e--------------------------------------------------------|  \
b--------------------------------------------------------|   \ 
g--44-444444-------------------11111111--99xxx999/11\9---|    \
d--44-444444--44-444444--6666--11111111--99xxx999/11\9---|    x2
a--22-222222--44-444444--6666--9-9-9-9---77xxx777/9-\7---|    /
D-------------44-444444--6666--------------=-------------|   /

Pre-Chorus- mess with the strumming but this sounds right to me… 
e-----------------------------------------------------------------------|
b-----------------------------------------------------------------------|
g-----------------------------------------------------------------------|
d--66-666-666-666-666-666-666-666--22-222-222-222-222-222-222-222222----|
a--66-666-666-666-666-666-666-666--22-222-222-222-222-222-222-222222----|
D--66-666-666-666-666-666-666-666--22-222-222-222-222-222-222-222222----|
             ^      ^      ^     ^      ^     ^      ^            ^      
Cont. not sure about the strumming… 
------------------------------------------------|
------------------------------------------------|
--66-666-666-666-666-66-6666--------------------|
--66-666-666-666-666-66-6666--4-4-4-4-4-4-4-4---|
--44-444-444-444-444-44-4444--4-4-4-4-4-4-4-4---|
------------------------------4-4-4-4-4-4-4-4---|
      ^      ^     ^     ^  
Chorus- put in the mutes whenever you want or just leave them out its up to you…
theirs the same amount of rest between each phrase… 
e---------------------------------------------| \
b---------------------------------------------|  \
g--x-4-4xxxx44----------6-6xxx66--------------|   \
d--x-4-4xxxx44--4-4x44--6-6xxx66--2-2x22--44--|   x2
a--x-2-2xxxx22--4-4x44--4-4xxx44--2-2x22--44--|   /
D---------------4-4x44------------2-2x22--44--|  /

Post Chorus-not sure about the middle part… Please help… 
e------------------------------------------------------------------|
b------------------------------------------------------------------|
g--4-4-4/6/8-8\6\4-----------------9-9-9/11111111-9-9999999/11\9---|
d--x-x-x/x/x-x\x\x--4-4-4/5/6\5\4--9-9-9/11111111-9-9999999/11\9---|
a--2-2-2/4/6-6\4\2--4-4-4/5/6\5\4--7-7-7/9-9--9-9-7-7777777/9-\7---|
D-------------------4-4-4/5/6\5\4----------------------------------|

 2nd Guitar Solo/Fill-
e------------------------------------|
b--9/16-14-12--12-11----12-11--------|
g-------------------11-------11------|
d------------------------------------|
a------------------------------------|
D------------------------------------|


Verse- Guitar 1
e-------------------------------------------------------|
b-------------------------------------------------------|
g--44-444444-------------------11111111--99xxx99999-----|
d--44-444444--44-444444--6666--11111111--99xxx99999-----|
a--22-222222--44-444444--6666--9-9-9-9---77xxx77777-----|
D-------------44-444444--6666---------------------------|

Cont.-  Guitar 1
e---------------------------------------------------------|
b---------------------------------------------------------|
g--44-444444-------------------11111111--99999999---------|
d--44-444444--44-444444--6666--11111111--99999999---------|
a--22-222222--44-444444--6666--9-9-9-9---77777777---------|
D-------------44-444444--6666-----------------------------|

Verse- Guitar 2
e---------------------------------------------------------------------|
b---------------------------------------------------------------------|
g--------16------16------16------16------18------18-------18------18--|
d-----16------16------16------16------18------18-------18------18-----|
a--14------14------14------14------16------16-------16------16--------|
D---------------------------------------------------------------------|
Cont. Guitar 2
e-------------------------------------------------------------------| \
b--12-11----12-11----12-11-----(2nd---12-11-12--12-11-12--12-11-12--|  \
g-------11--------11-------11-ending)-------------------------------|   \
d-------------------------------------------------------------------|   x2
a-------------------------------------------------------------------|  /
D-------------------------------------------------------------------| /

Pre-Chorus
e--------------------------------| \
b--------------------------------|  \
g-----------------4444-----------|   \
d--1-1-1-1/2-2-2--4444--4-4-4----|   x4
a--1-1-1-1/2-2-2--2222--4-4-4----|   /
D--1-1-1-1/2-2-2--------4-4-4----|  /

Cont. not sure about this… Sounds good though…
e------------------------------| \        e-----------------|
b------------------------------|  \       b-----------------|
g----4---4-------4----4-----4--|   \      g-----------------|
d---4---4-4-----4----4-4---4-4-|   x2     d--4444444444444--|
a--2-----------2----------2----|  /       a--4444444444444--|
D------4------------4----------| /        D--4444444444444--|
                                         pm***************
Chorus
e---------------------------------------------| \
b---------------------------------------------|  \
g--x-4-4xxxx44----------6-6xxx66--------------|   \
d--x-4-4xxxx44--4-4x44--6-6xxx66--2-2x22--44--|   x2
a--x-2-2xxxx22--4-4x44--4-4xxx44--2-2x22--44--|   /
D---------------4-4x44------------2-2x22--44--|  /

End. 
Enjoy!

| /  slide up
| \  slide down
| h  hammer-on
| p  pull-off
| ~  vibrato
| +  harmonic
| * Palm Mute 
| ^ Up Stroke 





Comments


Popular Ice Nine Kills tabs & chords
A Lifetime In A Week 1 Tabs
Build A Bridge And Jump Off Tabs
Finding Emo Intro Tabs
Finding Emo Intro 1 Tabs
I Do And I Don't Tabs
Last Words Tabs
Last Words Intro Tabs
Last Words Intro 2 Tabs
So This Is My Future Tabs
What I Should Have Learned In Study Hall Ukulele


Song lyrics



↑ Back to top | Tablatures and chords are parodies/interpretations of the original songs. You may use it for private study, scholarship, research or language learning purposes only
© 2014 AZChords.com Contact us | Privacy policy | DMCA | Add/correct tabs | Request tabs | Top 50 tabs